Misc Your Songs - Scott W - Laurens Song Text Guitar Tab

Learn the song with the online tablature player
                             Laurens Song - Scott

Verse

e|---------------------------------------|
B|-------0-------0-------0--------0------|
G|------0-0-----0-0-----0-0------0-0-----|
D|----2-------------------------0--------|      x3
A|------------3--------------------------|
E|--------------------3------------------|

Chorus

e|-----------------------------------------------|
B|-----------------------------------------------|
G|-----------------------------------------------|
D|-----------2-2-2-2--2-2-2-2--------------------|     x2
A|--2-2-2-2--3-3-3-3--2-2-2-2--3-3-3-3-----------|
E|--3-3-3-3--------------------4-4-4-4-----------|

Verse

e|---------------------------------------|
B|-------0-------0-------0--------0------|
G|------0-0-----0-0-----0-0------0-0-----|
D|----2-------------------------0--------|      x3
A|------------3--------------------------|
E|--------------------3------------------|

Chorus

e|-----------------------------------------------|
B|-----------------------------------------------|
G|-----------------------------------------------|
D|-----------2-2-2-2--2-2-2-2--------------------|     x4
A|--2-2-2-2--3-3-3-3--2-2-2-2--3-3-3-3-----------|
E|--3-3-3-3--------------------4-4-4-4-----------|

| /  slide up
| \  slide down
| h  hammer-on
| p  pull-off
| ~  vibrato
| +  harmonic
| x  Mute note