Misc Your Songs - Shocker - My First Punk Song Text Guitar Tab

Learn the song with the online tablature player
My First Punk Song - Shocker

Intro
E  --------------------------------------------------
B  --------------------------------------------------
G  --------------------------------------------------
D--------0-1-----------------------------------------
A  -2-2-------2------1-------------------------------
E  ---------------2-1--------------------------------

Verse
E  ---------------------------------------------------
B  ---------------------------------------------------
G  ---------------------------------------------------
D  -7--------9---------5---------3--------------------
A  -7-(x6)--9--(x6)--5--(x6)--3--(x6)-----------------
E  -5--------7---------3---------1--------------------

Chorus
E  ---------------------------------------------------
B  ---------------------------------------------------
G  ---------------------------------------------------
D  -7-7---9-9---5-5---3-3---0-0-----------------------
A  -7-7---9-9---5-5---3-3---0-0-----------------------
E  -5-5---7-7---3-3---1-1---0-0-----------------------

Intro   4x
Verse   4x
Chorus  4x
Verse   4x
Chorus  4x
Verse   4x
Chorus  4x
Intro   4x