Misc Your Songs - Staple Gun - Spoiled Text Guitar Tab

Learn the song with the online tablature player
Band-TBA/Anonymous
Song-Spoiled
Album-To Be Announced

Intro
D|-------------------------------------------------------------|
A|-------------------------------------------------------------|
F|7-0-7-0-7-0-7-0-7-0-7-0-7-0-7-0-4-0-4-0-4-0-4-0-5-0-5-0-5-0-5|
C|-------------------------------------------------------------|
G|-------------------------------------------------------------|
D|-------------------------------------------------------------|

Intro 2/Chorus
D|-------------------------------------------------------------|
A|-------------------------------------------------------------|
F|-------------------------------------------------------------|
C|7-0-7-0-7-0-7-0-7-0-7-0-7-0-7-0-4-0-4-0-4-0-4-0-5-0-5-0-5-0-5|
G|7-0-7-0-7-0-7-0-7-0-7-0-7-0-7-0-4-0-4-0-4-0-4-0-5-0-5-0-5-0-5|
D|7-0-7-0-7-0-7-0-7-0-7-0-7-0-7-0-4-0-4-0-4-0-4-0-5-0-5-0-5-0-5|

Verse
D|-------------------------------------------------------------|
A|-------------------------------------------------------------|
F|-------------------------------------------------------------|
C|-------------------------------------------------------------|
G|-------------------------------------------------------------|
D|7-0-7-0-7-0-7-0-7-0-7-0-7-0-7-0-4-0-4-0-4-0-4-0-5-0-5-0-5-0-5|

Lead
D|-------------------------------------------------------------|
A|-------------------------------------------------------------|
F|-------------------------------------------------------------|
C|7-7-7-7-7-7-7-7-7-7-7-7-7-7-7-7-4-4-4-4-4-4-4-4-5-5-5-5-5-5-5|
G|7-7-7-7-7-7-7-7-7-7-7-7-7-7-7-7-4-4-4-4-4-4-4-4-5-5-5-5-5-5-5|
D|7-7-7-7-7-7-7-7-7-7-7-7-7-7-7-7-4-4-4-4-4-4-4-4-5-5-5-5-5-5-5|

Solo 1
D|-------------------------------------------------------------|
A|9-0-9-0-9-0-9-0-9-0-9-0-9-0-9-0------------------------------|
F|7-0-7-0-7-0-7-0-7-0-7-0-7-0-7-0-----------------7-0-7-0-7-0-7|
C|--------------------------------7-0-7-0-7-0-7-0-5-0-5-0-5-0-5|
G|--------------------------------5-0-5-0-5-0-7-0--------------|
D|-------------------------------------------------------------|

Solo 2
D|-------------------------------------------------------------|
A|-------------------------------------------------------------|
F|-------------------------------------------------------------|
C|-------------------------------------------------------------|
G|-------------------------------------------------------------|
D|3-3-3-3-3-3-3-3-3-3-3-3-3-3-3-3-0-0-0-0-0-0-0-0-1-1-1-1-1-1-1|

Outro 1
D|-------------------------------------------------------------|
A|-------------------------------------------------------------|
F|-------------------------------------------------------------|
C|7-0-7-0-7-0-7-0-7-0-7-0-7-0-7-0-4-0-4-0-4-0-4-0-5-5-5-5-5-5-5|
G|7-0-7-0-7-0-7-0-7-0-7-0-7-0-7-0-4-0-4-0-4-0-4-0-5-5-5-5-5-5-5|
D|7-0-7-0-7-0-7-0-7-0-7-0-7-0-7-0-4-0-4-0-4-0-4-0-5-5-5-5-5-5-5|

Outro 2
D|-------------------------------------------------------------|
A|-------------------------------------------------------------|
F|-------------------------------------------------------------|
C|7-7-7-7-7-7-7-7-7-7-7-7-7-7-7-7-4-4-4-4-4-4-4-4-5-0-5-0-5-0-5|
G|7-7-7-7-7-7-7-7-7-7-7-7-7-7-7-7-4-4-4-4-4-4-4-4-5-0-5-0-5-0-5|
D|7-7-7-7-7-7-7-7-7-7-7-7-7-7-7-7-4-4-4-4-4-4-4-4-5-0-5-0-5-0-5|

Order:

Intro
2 Times
Intro 2/Chorus- 2 Times

Verse
4 Times
Lead- 2 Times
Intro 2/ Chorus- 4 Times

Verse
4 Times
Lead- 2 Times
Intro 2/Chorus- 8 Times

Solo 1
2 Times

Solo 2
1 Time
Intro 2/Chorus- 8 Times

Outro 1
1 Time

Outro 2
1 Time