Misc Your Songs - Symphony No3 Text Guitar Tab

Learn the song with the online tablature player
                             Symphony No.3 - Josh

e|-------------------------------------------------------------------------|
B|-------------------------------------------------------------------------|
G|-------------------------------------------------------------------------|
D|--------7------7------------4-----4----------X2--------------------------|
A|---5-5----5------5-5---0-0----0-----0-0----------------------------------|
D|-5----------5--------0----------0----------------------------------------|

e|-------------------------------------------------------------------------|
B|-------------------------------------------------------------------------|
G|-------------------------------------------------------------------------|
D|-------5-----5----------2/4--0-0----7--4-----5-2/4-----------------------|
A|----3----3-----3-3----0-------------5--0--X2-3-0/0-----------------------|
D|--3--------3--------0---------------5--0-----3-0/0-----------------------|

| /  slide up
| \  slide down
| h  hammer-on
| p  pull-off
| ~  vibrato
| +  harmonic
| x  Mute note