Misc Your Songs - Tdavis - One Day Text Guitar Tab

Learn the song with the online tablature player
                             One Day - T Davis

     Q    8      Q    8      Q    8    8 8 8 8 8 8 8 8
e|---------------------------------------------------------------------------|
B|---------------------------------------------------------------------------|
G|---------------------------------------------------------------------------|
D|---7----7------7----7------7----7------------------------------------------|
A|---7----7------7----7------7----7------------------------------------------|
E|---5----5------5----5------5----5----6-6-6-6-6-5-5-5-----------------------|
                                      |-------pm-------|

     Q    8      Q    8      Q    8    8 8 8 8 8 8 8 8
e|---------------------------------------------------------------------------|
B|---------------------------------------------------------------------------|
G|---------------------------------------------------------------------------|
D|---7----7------7----7------7----7------------------------------------------|
A|---7----7------7----7------7----7------------------------------------------|
E|---5----5------5----5------5----5----6-6-6-6-6-5-5-5-----------------------|
                                      |-------pm-------|

     Q    8      Q    8      Q    8      Q    8
e|---------------------------------------------------------------------------|
B|---------------------------------------------------------------------------|
G|---------------------------------------------------------------------------|
D|---7----7------7----7------0----0------5----5------------------------------|
A|---7----7------7----7------0----0------5----5------------------------------|
E|---------------------------------------------------------------------------|

     Q    8      Q    8      Q    8      Q    8
e|---------------------------------------------------------------------------|
B|---------------------------------------------------------------------------|
G|---------------------------------------------------------------------------|
D|---7----7------7----7------0----0------5----5------------------------------|
A|---7----7------7----7------0----0------5----5------------------------------|
E|---------------------------------------------------------------------------|

     Q  8 8 8 8 8 8 8 8 8 8 8 8  8      Q  8 8 8 8  Q
e|---------------------------------------------------------------------------|
B|---------------------------------------------------------------------------|
G|---------------------------------------------------------------------------|
D|---7---------------------------7------3-----------3------------------------|
A|---7--7-7-7-7-7-7-7-7-7-7-7-7--7------3--3-3-3-3--3------------------------|
E|---------------------------------------------------------------------------|
      |----------pm-------------|         |--p-m--|

     Q  8 8 8 8  Q      Q  8  8  8  8  8  Fast slide up to 8, then down to 7
e|---------------------------------------------------------------------------|
B|---------------------------------------------------------------------------|
G|---------------------------------------------------------------------------|
D|---0-----------0------5--0--5--0--5--0---5-/-8-\-7-------------------------|
A|---0--0-0-0-0--0------5--0--5--0--5--0-------------------------------------|
E|---------------------------------------------------------------------------|
       |--p-m--|

     Q  8 8 8 8 8 8 8 8 8 8 8 8  8      Q  8 8 8 8  Q
e|---------------------------------------------------------------------------|
B|---------------------------------------------------------------------------|
G|---------------------------------------------------------------------------|
D|---7---------------------------7------3-----------3------------------------|
A|---7--7-7-7-7-7-7-7-7-7-7-7-7--7------3--3-3-3-3--3------------------------|
E|---------------------------------------------------------------------------|
      |----------pm-------------|         |--p-m--|

     Q  8 8 8 8  Q      Q  8  8  8  8  8  Fast slide up to 8, then down to 7
e|---------------------------------------------------------------------------|
B|---------------------------------------------------------------------------|
G|---------------------------------------------------------------------------|
D|---0-----------0------5--0--5--0--5--0---5-/-8-\-7~~~~~~-------------------|
A|---0--0-0-0-0--0------5--0--5--0--5--0-------------------------------------|
E|---------------------------------------------------------------------------|
       |--p-m--|

Guide:

| /  slide up
| \  slide down
| h  hammer-on
| p  pull-off
| ~  vibrato
| pm Palm Mute
| Q Quarter Note
| 8 8th Note