Misc Your Songs - Till Twelve - I Want Text Guitar Tab

Learn the song with the online tablature player
This song isn't hard to play. Everyone band should learn it, its awesome!
Till Twelve is rather unknown, but I think it's one of the most talanted Europe -
alternative rockbands.

Legend:
/ : slide
v : vibrate

Intro
              I'm still not...
e|-13/12/13v--1-----1--13-13/12v-|
B|------------2-----2------------|
G|------------2-----2------------|
D|----------------4--------------|
A|---------------4---------------|
E|--------------3----------------| Repeat 4 times

Verse
  I do live...So this...   Am I stuck...
e|-1---1---1---3---3---3-|-x-x-x--x-x-x-|
B|-2---2---2---4---4---4-|-3-3-3--4-4-4-|
G|-2-2-2-2-2-2-4-4-4-4-4-|-2-2-2--3-3-3-|
D|-0-0-0-0-0-0-0-0-0-0-0-|-3-3-3--4-4-4-|
A|-0---0---0---0---0---0-|-3-3-3--4-4-4-|
E|-x---x---x---x---x---x-|-0-0-0--0-0-0-| Repeat 2 times

Chorus Guitar 1:
              All I want...
e|-1---1---1---3---3---3-|
B|-2---2---2---4---4---4-|
G|-2-2-2-2-2-2-4-4-4-4-4-|
D|-0-0-0-0-0-0-0-0-0-0-0-|
A|-0---0---0---0---0---0-|
E|-x---x---x---x---x---x-|
Chorus Guitar 2:
e|-x-x-x--x-x-x--17/1v---|
B|-3-3-3--4-4-4--17/1v---|
G|-2-2-2--3-3-3----------|
D|-3-3-3--4-4-4----------|
A|-3-3-3--4-4-4----------|
E|-0-0-0--0-0-0----------| Repeat 6 times

Climax Guitar 1:
  Is it a nightmare again...
e|-13--13--13--11--11---|
B|---15--15--15--13--13-|
G|----------------------|
D|----------------------|
A|----------------------|
E|----------------------|
Guitar 2:
e|-x-x-x--x-x-x---------|
B|-3-3-3--4-4-4---------|
G|-2-2-2--3-3-3---------|
D|-3-3-3--4-4-4---------|
A|-3-3-3--4-4-4---------|
E|-0-0-0--0-0-0---------| Repeat 6 times

Solo
e|-12/13/12-----------13\12v-13--13--13--11--11---|
B|---------10-10-10-12---------15--15--15--13--13-|
G|------------------------------------------------|
D|------------------------------------------------|
A|------------------------------------------------|
E|------------------------------------------------| Repeat 2 times, fade

Lyrics:

I want

Intro
I’m-still-not-seeing-myself
Looking-to-somebody-else
I-still-ain’t-feel-I-live-but

1:
I live now
So this situation
Seems like a mental prison
To me...
Am-I-stuck?
Is-the-rest-growing-old?
I don’t know…
But all for the portraying!

Chorus
I want, now fake
Now it’s time
You should understand
I don’t care why
Everyone act
So innocent

2:
Be alone in post youth
Just a nightmare,
See how it scares hell
Out of me
Am-I-left?
Is-every-one-gone?
It feels so…
Fuck-now-I-just-wanna-be-in!

Chorus
2x, and repeat in climax)

Climax:
Is-it-nightmare-overruled-by-a-dream? (2x)
How can I know…
Is-it-a-nightmare-again,
Fucks-it-up-again!

Chorus  Fading

© All lyrics and music by Till Twelve