Misc Your Songs - Unknown To All - Direction Text Guitar Tab

Learn the song with the online tablature player
Song: direction
Written: matty hallen
Band: unknown to all

This was the first song I ever write. Weither it is any good or not is up to you. Got no
yet still looking for singer. Any way injoy

*palm mute
.let ring
T tap
B bend
H hammeron
P pulloff
   / slide up
   \ slide down

Intro
clean
|--------------------------|-------------------------------|
|--------------------------|-------------------------------|
|--------------------------|-------------------------------|
|---4--4--4---7--7--7--7---|-------9--9--9------12----12-9-|
|--4--4--4---7--7--7--7----|-----9--9--9------10----10---9-|
|-2—-2—-2—2/5--5--5--5-----|-5/7--7--7—---7/10----10-----7-|

Chorus
Light distortion
|--------------------------|---------------------------|x5
|--------------------------|---------------------------|
|--------------------------|---------------------------|
|-4-4-4-4-4-7-9-5-5-5-10-7-|-4-4-4-4-4-7-9-12-9\-------|
|-4-4-4-4-4-7-9-5-5-5-10-7-|-4-4-4-4-4-7-9-12-9\-------|
|-2-2-2-2-2-5-7-3-3-3-12-9-|-2-2-2-2-2-5-7-10-7\-------|
    *   *                      *   *       .  .

bridge
clean
|-------------------------|-------------------------|
|-------------------------|-------------------------|
|-------------------------|-------------------------|
|---9-10-----7-8----------|----5-6-----3-4----------|
|--9-9--9---7-7-7---------|---5-5-5---3-3-3---------|
|-7------7-5-----5--------|--3-----3-1-----1--------|

Solo
|--------------------------------------------------|x3
|--------------------------------------------------|
|-3\15-13-15-10-12-7-9-5-7-3-5---------------------|
|--------------------------------------------------|
|--------------------------------------------------|
|--------------------------------------------------|

|--------------------------------------------------|
|--------------------------------------------------|
|-3/15-17p12h15-17p12h15-17p12h15-17p12h15-17p12h15|
|--------------------------------------------------|
|--------------------------------------------------|
|--------------------------------------------------|
       T         t         t      t         t

|--------------------------------------------------|
|-17p10h12-17p10h12-17p10h12-17p10h12-17p7h9-17p7h9|
|--------------------------------------------------|
|--------------------------------------------------|
|--------------------------------------------------|
|--------------------------------------------------|
   T        t         t       t        t      t

|--------------------------------------------------|
|-17p7h9-17p7h9-17p5h7-17p5h7-17p5h7-17p5h7-17p3h5-|
|--------------------------------------------------|
|--------------------------------------------------|
|--------------------------------------------------|
|--------------------------------------------------|
   T     t       t      t      t      t      t

|-------------------------3h5-7-9-b11--------------|
|-17p3h5-17p3h5-17p3h5-5-3-------------------------|
|--------------------------------------------------|
|--------------------------------------------------|
|--------------------------------------------------|
|--------------------------------------------------|
   T     t       t

Outro
light distortion
|--------------------------------------------------|
|--------------------------------------------------|
|--------------------------------------------------|
|-444444444444444444444442-12\4--------------------|
|-444444444444444444444442-12\4--------------------|
|-222222222222222222222220-10\2--------------------|

 :}