Misc Your Songs - Walking Backwards Text Guitar Tab

Learn song with the online tabulature player
guitart part for walking backwards

e------------------------------------------------------
B------------------------------------------------------
G2-2 2-2--0-0-0-0--------------------------------------
D2-2-2-2--3-3-3-3--0-0-0-0-0-0-0-0--------------------- x 4
A0-0-0-0--2-2-2-2--2-2-2-2-0-0-0-0---------------------
E------------------3-3-3-3-2-2-2-2---------------------

e-------------0---------0--0---------------------------
B-----0-----0---2---0-----------0----------------------
G---2-------2---2---2---------2--2--------0-----0------
D---2---2----------3^---3------3---3------0---0-------- x 4
A-0-------0-----------------------------2---2-2--2-----
E-------------------------------------3-------3--2-3^-2

and the first one x4 again

contact moi @ vector5555555555@yahoo.com