Mischievous Thom - Displaced Text Guitar Tab

Learn the song with the online tablature player
Mischievous Thom

      Displaced

 e |---------------------------------------|
 B |---------------0---------------3-------|
 G |------0--------4--------0-----------0--|
 D |----2--------2---2----4---4------------|
 A |--0-----0--3--------5--------5---5-----|
 E |---------------------------------------|

 e |---------------------------------------|
 B |---------------0-----------------------|
 G |------0--------4-----------------------|
 D |----2--------2---2-------------0-------|
 A |--0-----0--3-----------------2---2-----|
 E |--------------------2-0-2-3------------|