Misery Index - Outsourcing Jehovah Text Guitar Tab

Learn the song with the online tablature player
::TABULATURE LEGEND::
 " - tremolo             h - hammer on
 ~ - vibrato             \ - slide down
 p - pull off            / - slide down
 tr - trill              ^ - pinch harmonics
 = - sustained note      b - bend string
 p.m. - palm muting      t - tapping

Riff 1
x4)
|--------------------------------------------------------------------|
|--------------------------------------------------------------------|
|--------------------------------------------------------------------|
|--------------------------------------------------------------------|
|---2---------------------6h9p6h9p6h9p6h9---2------------3--2--6--2--|
|-0-0--0-225-5-8-00000000-----------------0-0--0-225-5-8-3--2--6--2--|
  .    . ... . .                          .    . ... . .

Riff 2
|-------------------------------------------------------|-
|-------------------------------------------------------|-
|-------------------------------------------------------|-
|-------------------------------------------------------|-
|-7-7--7-7-7--7-6-6--6-8-8--8-7-7--7-7-7--7-------------|-
|-5-5--5-5-5--5-4-4--4-6-6--6-5-5--5-5-5--5-(t12p7p4h7)-|-
                                             \_x4____/

 ----------------------------------------------------|
 ----------------------------------------------------|
 ----------------------------------------------------|
 -------------------------------------------x\-------|
 -7-7--7-7-7--7-6-6--6-8-8--8-7-7--7-7-7--7-x\-------|
 -5-5--5-5-5--5-4-4--4-6-6--6-5-5--5-5-5--5-x\-------|
                                            pick scrapes...
Riff 3a
|----------------------------------|----------------------------------
|----------------------------------|----------------------------------
|----------------------------------|----------------------------------
|----------------------------------|----------------------------------
|-77777777777777777777777788887777-|-77777777777777777777777766666666-
|-55555555555555554444444444444444-|-55555555555555554444444444444444-

 ----------------------------------|--------------------------------
 ----------------------------------|--------------------------------
 ----------------------------------|--------------------------------
 ----------------------------------|--------------------------------
 -77777777777777777777777788887777-|-777777777777777777777777-3--2--
 -55555555555555554444444444444444-|-555555555555555544444444-1--0--

Riff 4
|-----------------------------|----------------------------------
|-----------------------------|----------------------------------
|-----------------------------|----------------------------------
|-----------------------------|-------------------------66666666-
|-7-7--7-7-7--7-6-6--6-8-8--8-|---------88887755-----------------
|-5-5--5-5-5--5-4-4--4-6-6--6-|-55557788--------44446677---------

 -7=====-7-----------------------------------------
 -5=====-5-t12p7p4h7-t12p7p4h7-t13p7p4h7-t12p7p4h7-

 ----------------------|--------------------|------------------|
 ----------------------|--------------------|------------------|
 ----------------------|--------------------|------------------|
 ------------------^---|--------------------|------------------|
 -7====-7-7===-----1~--|-7====-7-7===-8--7--|-7====-7-7===-3-2-|
 -5====-5-4===-1-0-----|-5====-5-4===-4--4--|-5====-5-4===-1-0-|
                                                           . .

[Riff 5a /pick tapping/]
|-------------------------------------|-------------------------------------
|-------------------------------------|-------------------------------------
|-------------------------------------|-------------------------------------
|-------------------------------------|-------------------------------------
|-------------------------------------|-------------------------------------
|-[t8p5].....-[t7p4]...-[t9p6]-[t7p4]-|-[t8p5].....-[t7p4]...-[t4p1]-[t3p0]-
|                                     |
|-------------------------------------|-------------------------------------
|-------------------------------------|-------------------------------------
|-------------------------------------|-------------------------------------
|-------------------------------------|-------------------------------------
|-------------------------------------|-------------------------------------
|-[t8p5].....-[t7p4]...-[t9p6]-[t7p4]-|-[t8p5].....-[t7p4]...-[t4p1]-[t3p0]-

 -------------------------------------|--------------------------
 -------------------------------------|--------------------------
 -------------------------------------|--------------------------
 -------------------------------------|--------------------------
 -[t10p7]....-[t9p6]...[t11p8]-[t9p6]-|-[t10p7]....-[t9p6]-------
 -------------------------------------|--------------------16\\\-
                                      |
 -------------------------------------|--------------------------
 -------------------------------------|--------------------------
 -------------------------------------|--------------------------
 -------------------------------------|--------------------------
 -------------------------------------|--------------------------
 -[t8p5].....-[t7p4]...-[t9p6]-[t7p4]-|-[t8p5].....-[t7p4]-16\\\-

Riff 3b
|----------------------------------|----------------------------------
|----------------------------------|----------------------------------
|----------------------------------|----------------------------------
|----------------------------------|----------------------------------
|-77777777777777777777777788887777-|-77777777777777777777777766666666-
|-55555555555555554444444444444444-|-55555555555555554444444444444444-
|                                  |
|----------------------------------|----------------------------------
|----------------------------------|----------------------------------
|----------------------------------|----------------------------------
|----------------------------------|----------------------------------
|-77777777777777777777777788887777-|-77777777777777777777777766666666-
|-55555555555555554444444444444444-|-55555555555555554444444444444444-

 ----------------------------------|----------------------------------|
 ----------------------------------|----------------------------------|
 ----------------------------------|----------------------------------|
 ----------------------------------|----------------------------------|
 -77777777777777777777777788887777-|-77777777777777777777777777777777-|
 -55555555555555554444444444444444-|-55555555555555554444444444444444-|
                                   |                                  |
 ----------------------------------|----------------------------------|
 ----------------------------------|----------------------------------|
 ----------------------------------|----------------------------------|
 -5555555555555555-----------------|-5555555555555555-----------------|
 -33333333333333337777777788887777-|-33333333333333337777777777777777-|
 -----------------4444444444444444-|-----------------4444444444444444-|

Riff 6
|-----------------------------------------------|-
|-----------------------------------------------|-
|-----------------------------------------------|-
|-----------------------------------------------|-
|-7----3---3-7----3---3-8----3---3-777788887777-|-
|-5--0-1-0-1-5--0-1-0-1-5--0-1-0-1-444444444444-|-
|    . . . .    . . . .    . . . .              |
|-----------------------------------------------|-
|-----------------------------------------------|-
|-----------------------------------------------|-
|-----------------------------------------------|-

 ------------------------------------------------|
 ------------------------------------------------|
 ------------------------------------------------|
 ------------------------------------------------|
 -7----3---3-7----3---3-777777777777666666666666-|
 -5--0-1-0-1-5--0-1-0-1-444444444444444444444444-|
     . . . .    . . . .                          |
 ------------------------------------------------|
 ------------------------------------------------|
 ------------------------------------------------|
 ------------------------------------------------|

Outro
/both gtrs./
|-----------------------------------------------|-
|-----------------------------------------------|-
|-----------------------------------------------|-
|-----------------------------------------------|-
|-7----3---3-7----3---3-8----3---3-777788887777-|-
|-5--0-1-0-1-5--0-1-0-1-5--0-1-0-1-444444444444-|-
     . . . .    . . . .    . . . .

 -----------------------------------------|
 -----------------------------------------|
 -----------------------------------------|
 -----------------------------------10~---|
 -7----3---3-7----3---3-------------------|
 -5--0-1-0-1-5--0-1-0-1-5555777755558~~---|
     . . . .    . . . .

RIFF 6
x2)] /both gtrs./

[Riff 5b /pick tapping/] *slow tempo
|-------------------------------------|-------------------------------------
|-------------------------------------|-------------------------------------
|-------------------------------------|-------------------------------------
|-------------------------------------|-------------------------------------
|-------------------------------------|-------------------------------------
|-[t8p5].....-[t7p4]...-[t9p6]-[t7p4]-|-[t8p5].....-[t7p4]...-[t4p1]-[t3p0]-
|                                     |
|-------------------------------------|-------------------------------------
|-------------------------------------|-------------------------------------
|-------------------------------------|-------------------------------------
|-------------------------------------|-------------------------------------
|-------------------------------------|-------------------------------------
|-[t8p5].....-[t7p4]...-[t9p6]-[t7p4]-|-[t8p5].....-[t7p4]...-[t4p1]-[t3p0]-

 -------------------------------------|----------------------------|
 -------------------------------------|----------------------------|
 -------------------------------------|----------------------------|
 -------------------------------------|-------------[t10p7]-[t9p6]-|
 -[t10p7]....-[t9p6]...[t11p8]-[t9p6]-|-[t10p7]....----------------|
 -------------------------------------|----------------------------|
                                      |                            |
 -------------------------------------|----------------------------|
 -------------------------------------|----------------------------|
 -------------------------------------|----------------------------|
 -------------------------------------|----------------------------|
 -------------------------------------|----------------------------|
 -[t8p5].....-[t7p4]...-[t9p6]-[t7p4]-|-[t8p5].....-[t7p4]........-|

Riff 7a
x2)]
|---------------------------------------------------|-
|---------------------------------------------------|-
|---------------------------------------------------|-
|-9----------9----------10---------9999101010109999-|-
|-7----------7----------7----------66666-6-6-6-6666-|-
|-7--788-788-7--788-788-7--778-778------------------|-
     ... ...    ... ...    ... ...
                        _________________________
                       |1.
 ------------------------------------------------|
 ------------------------------------------------|
 ------------------------------------------------|
 -9----------9----------999999999999888888888888-|
 -7----------7----------666666666666666666666666-|
 -7--788-788-7--788-788--------------------------|
     ... ...    ... ... _________________________
                       |2.
                       --------------------------|
                       --------------------------|
                       --------------------------|
                       -------------444444444444-|
                       -222233332222555555555555-|
                       --------------------------|

Riff 7b
x3)]
|-----------------------------------------------|
|-----------------------------------------------|
|-----------------------------------------------|
|-9----------9----------9-----------------------|
|----2-3-2-3----2-3-2-3----2-3-2-3---------3333-|
|-7--0-1-0-1-7--0-1-0-1-7--0-1-0-1-11114444-----|
     . . . .    . . . .    . . . .

Outro 2
x2)]
|---------------------------|
|---------------------------|
|---------------------------|
|---------------------------|
|----------------------3333-|
|--------------11114444-----|

Outro 3
|---------------------|---------------------|
|---------------------|---------------------|
|---------------------|---------------------|

RIFF 1
x4)]

END OF SONG