Misfits - Blacklight Text Guitar Tab

Learn the song with the online tablature player
                             Blacklight - Misfits

(riff 2)
eb|---------------------------------------------------------------------------|
Bb|---------------------------------------------------------------------------|
Gb|---------------------------------------------------------------------------|
Db|---------------------------------------------------------------------------|
Ab|--7--7-7-7-7-7-7---5-7--7-7-7-7-7-7---3~p0---------------------------------|
Eb|--5--5-5-5-5-5-5---3-5--5-5-5-5-5-5----------------------------------------|
(PM)    . . . . . .        . . . . . .

(riff 3)
eb|---------------------------------|
Bb|---------------------------------|
Gb|---------------------------------|
Db|---------------------------------|
Ab|--3-3-3-3-3-3--7-7-7-7-7-7-------|
Eb|--1-1-1-1-1-1--5-5-5-5-5-5-------|

(riff 4)
eb|------------------------------------|
Bb|------------------------------------|
Gb|------------------------------------|
Db|---7-7-7-7-7-7-7-7--7/9-------------|
Ab|---5-5-5-5-5-5-5-5--5/7-------------|
Eb|------------------------------------|
(PM)  . . . . . . . .

(riff 5)
eb|--------------------------------|
Bb|--------------------------------|
Gb|--------------------------------|
Db|---------------5-5-5-5-5-5------|
Ab|--3-3-3-3-3-3--3-3-3-3-3-3------|
Eb|--1-1-1-1-1-1-------------------|

(riff 6)
eb|---------------------------------------------------------|
Bb|---------------------------------------------------------|
Gb|---------------------------------------------------------|
Db|----------------14-14-14-14------------------------------|
Ab|--15-15-15-15---12-12-12-12------------------------------|
Eb|--13-13-13-13--------------------------------------------|

(outro)
eb|-----------------------------------------------------------------------|
Bb|-----------------------------------------------------------------------|
Gb|-----------------------------------------------------------------------|
Db|--------------5-5-5-5-5-5------------------------5-5-5-5-5----2:-------|
Ab|--3-3-3-3-3-3-3-3-3-3-3-3--7---------3-3-3-3-3-3-3-3-3-3-3--0-0:--5-7--|
Eb|--1-1-1-1-1-1--------------5---/17~--1-1-1-1-1-1------------------3-5--|

order:
intro         1x
riff 2        8x
riff 3        4x
riff 4        1x
riff 5        1x
riff 2        4x
riff 3        4x
riff 4        1x
riff 6        4x
riff 4        1x
outro         1x

| PM Palm mute
| :  Hold chord
| /  slide up
| \  slide down
| h  hammer-on
| p  pull-off
| ~  vibrato
| +  harmonic
| x  Mute note