Misfits - Land Of The Dead Text Guitar Tab

Learn the song with the online tablature player
Chords:

A#5
G#5
F#5
C#5
F

Intro

Guitar 1
E|-------------------------------------------------|
B|-------------------------------------------------|
G|--8--6--5~-----------------------------------3~--|
D|-------------------------------------------------|
A|-------------------------------------------------|
E|-------------------------------------------------|

Guitar 2
E|-------------------------------------------------|
B|-------------------------------------------------|
G|-------------------------------------------------|
D|--8--6--4-4-4-4-4-4-4-4-4-4-4-4-4-4-4-4-4-4-3/8--|
A|--8--6--4-4-4-4-4-4-4-4-4-4-4-4-4-4-4-4-4-4-3/8--|
E|--6--4--2-2-2-2-2-2-2-2-2-2-2-2-2-2-2-2-2-2-1/6--|

Verse

E|-------------------------------------------------|
B|-------------------------------------------------|
G|-------------------------------------------------|
D|--8-8-8-8-8-8-8-8-8-8-8-4-4-4-4-4-4-4-4-4-4-4-4--|
A|--8-8-8-8-8-8-8-8-8-8-8-4-4-4-4-4-4-4-4-4-4-4-4--|
E|--6-6-6-6-6-6-6-6-6-6-6-2-2-2-2-2-2-2-2-2-2-2-2--|

Cont.
E|-------------------------------------------------|
B|-------------------------------------------------|
G|-------------------------------------------------|
D|--11-11-11-11-11-11-11-11-6-6-6-6-6-6-6-6-6-6-6--|
A|--9--9--9--9--9--9--9--9--6-6-6-6-6-6-6-6-6-6-6--|
E|--9--9--9--9--9--9--9--9--4-4-4-4-4-4-4-4-4-4-4--|

Bridge

E|-------------------------------------------------|
B|-------------------------------------------------|
G|-------------------------------------------------|
D|--4-4-4-4-4-4-4-4-4-4-4-3-3-3-3-3-3-3-3-3-3-3-3--|
A|--4-4-4-4-4-4-4-4-4-4-4-3-3-3-3-3-3-3-3-3-3-3-3--|
E|--2-2-2-2-2-2-2-2-2-2-2-1-1-1-1-1-1-1-1-1-1-1-1--|

Cont.
E|-------------------------------------------------|
B|-------------------------------------------------|
G|-------------------------------------------------|
D|--4-4-4-4-4-4-4-4-4-4-4-6~---------------//////--|
A|--4-4-4-4-4-4-4-4-4-4-4-6~---------------//////--|
E|--2-2-2-2-2-2-2-2-2-2-2-4~---------------//////--|

Chorus

E|-------------------------------------------------|
B|-------------------------------------------------|
G|-------------------------------------------------|
D|--8-8-8-8-8-8-8-8-8-8-8-11-11-11-11-11-11-11-11--|
A|--8-8-8-8-8-8-8-8-8-8-8-11-11-11-11-11-11-11-11--|
E|--6-6-6-6-6-6-6-6-6-6-6-9--9--9--9--9--9--9--9---|

Cont.
E|------------------------------------------------------|
B|------------------------------------------------------|
G|------------------------------------------------------|
D|--6-6-6-6-6-6-6-6-6-6-6-8-8-8-8-8-8-8-8-8-8-8-8--6/8--|
A|--6-6-6-6-6-6-6-6-6-6-6-8-8-8-8-8-8-8-8-8-8-8-8--6/8--|
E|--4-4-4-4-4-4-4-4-4-4-4-6-6-6-6-6-6-6-6-6-6-6-6--4/6--|

Outro

E|---------------------------------------------------|
B|---------------------------------------------------|
G|---------------------------------------------------|
D|--8-8-8-8-8-8-8-8-8-8-8-11~--6~--8--6--4--3--/--8--|
A|--8-8-8-8-8-8-8-8-8-8-8-11~--6~--8--6--4--3--/--8--|
E|--6-6-6-6-6-6-6-6-6-6-6-9~---4~--6--4--2--1--/--6--|

Key:

~ Ring Out
/ Slide
//// Pick Scrape

First Tab, Please Rate!