Misfits - Legacy Of Brutality Text Guitar Tab

Learn the song with the online tablature player
Misfits
Legacy Of Brutality

All Songs: Glenn Danzig
Vocals: Glenn Danzig
Electric: Doyle wolfgang von frankenstein
Bass: Jerry only
Drums: Arthur Googy

Misfits sounds:
Dean Markley strings
Metal Master foot pedal
Tunings on all songs: Standard

Chorus
1|-----------------------|
2|-----------------------|
3|-----------------------|
4|-4-4-3-3-3-4-4-4-3-3-3-|
5|-2-2-1-1-1-2-2-2-1-1-1-|
6|-----------------------|  Haha dont worry about the I love Lucy theme..

Chorus
1|------------------------------------------------------------|
2|------------------------------------------------------------|
3|------------------------------------------------------------|
4|---------------------------7-7-7-7--------------------------|
5|-9-9-9-9--7777777-5-5-5-5--5-5-5-5-7-7-7-7-5-5-5-5-7-7-7-7--|
6|-7-7-7-7--5555555-3-3-3-3----------5-5-5-5-3-3-3-3-5-5-5-5--|

Outro
1|------------------------------------------|
2|------------------------------------------|
3|------------------------------------------|
4|-77777777------------------------------7--|
5|-55555555--99999999--5-5-5-5--7-7-7-7--5--|
6|-----------77777777--3-3-3-3--5-5-5-5-----|

Intro
1|---------------------------------------------|
2|---------------------------------------------|
3|---------------------------------------------|
4|-------------7-7-7-7-7-------------7-7-7-7-7-|
5|-5-5-5-5-5---5-5-5-5-5--5-5-5-5-5--5-5-5-5-5-|
6|-3-3-3-3-3--------------3-3-3-3-3------------|

1|-------------------------|
2|-------------------------|
3|-------------------------|
4|-44444-------------------|                           |3|
5|-22222-55555-33333-55555-|                           |3|
6|-------33333-11111-33333-|play 4 times and end on F  |1|

1|----------------------------------|
2|----------------------------------|
3|----------------------------------|
4|------------7-7-7-7-7-------------|
5|-5-5-5-5-5--5-5-5-5-5--5-5-5-5-5--|
6|-3-3-3-3-3-------------3-3-3-3-3--|

1|-------------------------|
2|-------------------------|
3|-------------------------|
4|-44444-------------------|                                 |3| |5|
5|-22222-55555-33333-55555-|                                 |3| |5|
6|-------33333-11111-33333-|play 4 times and end on F and G  |1| |3|
thats all.

intro
1|--------|-----------|                                     |-|
2|--------|-----------|                                     |-|
3|-111111-|-----------|                                     |1|
4|-333333-|--11-44-11-|                                     |3|
5|-333333-|22---------|                                     |3|
6|--------|-----------| play 8X's and end on chord E on all.|-|

verse
1|------------------------------------|
2|------------------------------------|
3|------------------1-1-1-1-1-1-1-1-1-|
4|------------------3-3-3-3-3-3-3-3-3-|
5|-5-5-5-5-5-5-5-5--3-3-3-3-3-3-3-3-3-|
6|-3-3-3-3-3-3-3-3--------------------|play 8X's

1|--------|-----------|                                     |-|
2|--------|-----------|                                     |-|
3|-111111-|-----------|                                     |1|
4|-333333-|--11-44-11-|                                     |3|
5|-333333-|22---------|                                     |3|
6|--------|-----------| play 4X's and end on chord E on all.|-|

outro
1|------------------------------------|
2|------------------------------------|
3|------------------1-1-1-1-1-1-1-1-1-|
4|------------------3-3-3-3-3-3-3-3-3-|
5|-5-5-5-5-5-5-5-5--3-3-3-3-3-3-3-3-3-|
6|-3-3-3-3-3-3-3-3--------------------|play 12X's

Chorus
Repeat 3Xs then go into                this
-----------------------------------|-------------|
-----------------------------------|-------------|
-----------------------------------|-------------|
-3-3-3-3-3-3-3-3--5-5-5-5-5-5-5-5--|---3-----5---|
-3-3-3-3-3-3-3-3--5-5-5-5-5-5-5-5--|---3-----5---|
-1-1-1-1-1-1-1-1--3-3-3-3-3-3-3-3--|---1-----3---|

Bridge
1|-------------------------------------|
2|-------------------------------------|
3|-------------------------------------|
4|-------------------6-6-6-6-6-6-6-6-6-|
5|-6-6-6-6-6-6-6-6-6-4-4-4-4-4-4-4-4-4-|
6|-4-4-4-4-4-4-4-4-4-------------------|

Solo
1|------------------------------|
2|------------------------------|
3|--14------12--9---7-5-7-5---2-|
4|------------------------------|
5|------------------------------|
6|------------------------------|

you can play the chords or you can play the piano part Danzig plays.
I play piano myself. sounds lil better.

1|------------------|
2|------------------|
3|------------------|
4|--------------3-3-|
5|-3-3-5-5-6-6------|
6|------------------| play 102 X's

Verse
1|-----------------------------------|
2|-----------------------------------|
3|-----------------7-7-7-7-7-7-7-7---|
4|-7-7-7-7-7-7-7-7-7-7-7-7-7-7-7-7---|
5|-7-7-7-7-7-7-7-7-5-5-5-5-5-5-5-5---|
6|-5-5-5-5-5-5-5-5-------------------|

Pre-Chorus
1|------------------------------------------------------------------|
2|------------------------------------------------------------------|
3|---------------------------------7-7-7-7-7-7-7-7-9-9-9-9-9-9-9-9--|
4|-4-4-4-4-4-4-4-4-2-2-2-2-2-2-2-2-7-7-7-7-7-7-7-7-9-9-9-9-9-9-9-9--|
5|-4-4-4-4-4-4-4-4-2-2-2-2-2-2-2-2-5-5-5-5-5-5-5-5-7-7-7-7-7-7-7-7--|
6|-2-2-2-2-2-2-2-2-0-0-0-0-0-0-0-0----------------------------------|

Chorus                           Outro
1|--------------------------|   1|---|
2|--------------------------|   2|---|
3|------------------7-7-----|   3|---|
4|-7-7-7-7-7-7-7-7--7-7-----|   4|-7-|
5|-7-7-7-7-7-7-7-7--5-5-----|   5|-7-|
6|-5-5-5-5-5-5-5-5----------|   6|-5-|

Chorus
1|-----------------------|           1|---------------------|
2|-----------------------|           2|---------------------|
3|-----------------------|           3|---------------------|
4|------------7777777777-|           4|----------8888888888-|
5|-5555555555-5555555555-|           5|-66666666-6666666666-|
6|-3333333333------------|2X's then  6|-44444444------------|

Chorus
1|-------------------------|
2|-------------------------|
3|-5-5-5-5-----------------|
4|-5-5-5-5--3-3-3-3--------|
5|-3-3-3-3--3-3-3-3--5-5-5-|
6|----------1-1-1-1--3-3-3-|
I aint no goddamn son ofa bitch... haha best part..

pretty much it

Intro
Verse:                  The Break:
1|-----|  1|--------------------|   1|------|
2|-----|  2|--------------------|   2|------|
3|--0--|  3|--------------------|   3|-4--5-|
4|--4--|  4|-4-7---2-4-7---2-4--|   4|-4--5-|
5|--4--|  5|-2-5-5-0-2-5-5-0-2--|   5|-2--3-|
6|--2--|  6|-----3-------3------|   6|------|

Chorus                   Outro
1|---------------------|   1|-----------|
2|---------------------|   2|-----------|
3|---------------------|   3|-4-2-------|
4|-444444444-222222222-|   4|-4-2--5--4-|
5|-222222222-000000000-|   5|-2-0--5--4-|
6|---------------------|   6|------3--2-|

Riff2                           Riff3
1|----------------------------|  1|--------------------------|
2|----------------------------|  2|--------------------------|
3|----------------------------|  3|--------------------------|
4|----------------------------|  4|--------------------------|
5|-7-7-7-7--6--7-7-7-7-7-7-7--|  5|-9--9-9-9-9--9-9--9-11-9--|
6|-5-5-5-5--4--5-5-5-5-5-5-5--|  6|-7--7-7-7-7--7-7--7-9--7--|

Riff4                              Riff5
1|------------------------------| 1|---------------------------|
2|------------------------------| 2|---------------------------|
3|------------------------------| 3|---------------------------|
4|------------------------------| 4|-8-9-9-9-8-9-9-9-8-9-9-9-8-|
5|-9-9-9-9-9-9-9-9-9-9-9-9-9-9--| 5|-6-7-7-7-6-7-7-7-6-7-7-7-6-|
6|-7-7-7-7-7-7-7-7-7-7-7-7-7-7--| 6|---------------------------|

Riff6
1|-----------------------------|
2|-----------------------------|
3|-9--9--9-9--8--9--9--9-9--8--|
4|-7--7--7-7--6--7--7--7-7--6--|
5|-----------------------------|
6|-----------------------------|

Welp there ya go... Questions or Comments AIM-Misfits3388...