Misfits - This Magic Moment Text Guitar Tab

Learn the song with the online tablature player
You know, I've finally figured it out. Sounds spot on. It's not the original chords
in power chord form like one would think, either. They're all moved a fret up.

The only difference between the intro and the verse is the strumming pattern.
E]--------------------------------------|
B]--------------------------------------|
G]-6------3-----------------------------|
D]-6-x16--3-x16--4------6---------------| <- Once for intro, twice for verse
A]-4------1------4-x16--6-x8------------|
E]---------------2------4---------------|

E]--------------------------------------|
B]--------------------------------------|
G]-3-------------6----------------------|
D]-3-x16--4------6-x16--6---------------| <-Play this once
A]-1------4-x16--4------6-x8------------|
E]--------2-------------4---------------|

E]--------------------------------------|
B]--------------------------------------|
G]-6------3-----------------------------|
D]-6-x16--3-x16--4------6---------------| <- Play again twice
A]-4------1------4-x16--6-x8------------|
E]---------------2------4---------------|

E]-----------------------------------------------------------|
B]-----------------------------------------------------------|
G]-----------------------------------------------------------|
D]-------1-3-3-1---------------------------------------------| <- Play Once
A]-4~--4---------4-1~--1-3-4-4-1-----------1-1---------1-----|
E]-------------------------------4-2~--2-4-----4-2-4~----4---|

E]--------------------------------------|
B]--------------------------------------|
G]-3-------------6----------------------|
D]-3-x16--4------6-x16--6---------------| <- play this again
A]-1------4-x16--4------6-x8------------|
E]--------2-------------4---------------|

E]---------------------------               E]-----------|
B]---------------------------               B]-----------|
G]-6------3------------------               G]-----------|
D]-6-x16--3-x16--4------6---- <- 3 times    D]-6~--6-----| <- Play that for the end
A]-4------1------4-x16--6-x16               A]-6~--6-----|
E]---------------2------4----               E]-4~--4-----|