Missing Felimon - Kung Ako Ka Pa Lang Text Guitar Tab

Learn the song with the online tablature player
Try my acoustic version of ‘kung ako pa lang’ by missing felimon.

Intro
   G        D7
e|-------3--2---|
B|-----3----1---|
G|---4------2---|
D|-5--------0---|
A|--------------|
E|--------------|

Verse
e|----------------0---------0--------0----------------|
B|----------------1---------1--------1----------------|
G|--------------0---0-----0---0----2---2--------------|
D|----------------------------------------------------|
A|------------3---------2--------0--------------------|
E|----------------------------------------------------|
              C        C/B       Am
Kung ako ka pa lang tibuok sa kalibutan ko

e|-----0-----------1--------0---------1--------3--1---|
B|-----0-----------1--------1---------3--------0--3---|
G|---0---0-------2---2----0---0-----2---2------0--2---|
D|--------------------------------0------------0--0---|
A|----------------------3----------------------3------|
E|-0-----------1-------------------------------2------|
  Em           F        C        Dm            G D7
kanunayng magmaya    walay kahingawa walay kaguol

Verse
e|-----------------0----------0----------0------------|
B|-----------------1----------1----------1------------|
G|---------------0---0------0---0------2---2----------|
D|----------------------------------------------------|
A|-------------3----------2----------0----------------|
E|----------------------------------------------------|
               C          C/B        Am
Kung ako ka pa lang ang tanan sa kinabuhi ko

e|-----0---------1--------0--------1----------3--1----|
B|-----0---------1--------1--------3----------0--3----|
G|---0---0-----2---2----0---0----2---2--------0--2----|
D|-----------------------------0--------------0--0----|
A|--------------------3-----------------------3-------|
E|-0---------1--------------------------------2-------|
   Em        F        C       Dm              G D7
walay laing tumong kundi alagaran ka og mahalon

Chorus
e|-1-1-1-1-1-1---------------------------0-0-0-0-0-0--|
B|-1-1-1-1-1-1--------0-0-0-0-0-0--------1-1-1-1-1-1--|
G|-2-2-2-2-2-2--------0-0-0-0-0-0--------2-2-2-2-2-2--|
D|-3-3-3-3-3-3--------2-2-2-2-2-2--------2-2-2-2-2-2--|
A|-3-3-3-3-3-3--------2-2-2-2-2-2--------0-0-0-0-0-0--|
E|-1-1-1-1-1-1--------0-0-0-0-0-0---------------------|
   F                  Em                 Am
Alagaran ka sa adlaw nga tanan bisan pa man magluhod

e|-------1--------------------------------------------|
B|-------1--------------------------------------------|
G|-------2--------------------------------------------|
D|-------3--------------------------------------------|
A|-------3--------------------------------------------|
E|-------1--------------------------------------------|
         F
sa imung tiilan

e|----------0----------------------1------------------|
B|----------1--------------------3-3------------------|
G|--------0--------------------2----------------------|
D|------2--------------------0------------------------|
A|----3-----------------------------------------------|
E|----------------------------------------------------|
      C                      Dm
kay ikaw ang gisinggit ning dughan

e|-----------0-----------------1----------------------|
B|-----------1---------------3-3----------------------|
G|---------0---------------2--------------------------|
D|-------2---------------0----------------------------|
A|-----3----------------------------------------------|
E|----------------------------------------------------|
       C                 Dm
kining dughan ko nga samaran

e|-------0----------------------1---------------------|
B|-------1--------------------3-3---------------------|
G|-----0--------------------2-------------------------|
D|---2--------------------0---------------------------|
A|-3--------------------------------------------------|
E|----------------------------------------------------|
  C                       Dm
ikaw ang gisinggit ning dughan
e|--------------3--1----------------------------------|
B|--------------0--3----------------------------------|
G|------------0----2----------------------------------|
D|-----------------0----------------------------------|
A|----------------------------------------------------|
E|----------3-----------------------------------------|

           G D7
adlawng tanan

Adlib:
e|------0---------0--------0--------0--------1--------|
B|------1---------1--------1--------0--------1--------|
G|----0---0-----0---0----2---2----0---0----2---2------|
D|----------------------------------------------------|
A|--3---------2--------0------------------------------|
E|------------------------------0--------1------------|
    C        C/B      Am        Em       F
e|------0---------1--------3--1-----------------------|
B|------1---------3--------0--3-----------------------|
G|----0---0-----2---2------0--2-----------------------|repeat 2 times
D|------------0------------0--0-----------------------|
A|--3----------------------2--------------------------|
E|-------------------------3--------------------------|
    C         Dm           G D7

Chorus
e|-1-1-1-1-1-1---------------------------0-0-0-0-0-0--|
B|-1-1-1-1-1-1--------0-0-0-0-0-0--------1-1-1-1-1-1--|
G|-2-2-2-2-2-2--------0-0-0-0-0-0--------2-2-2-2-2-2--|
D|-3-3-3-3-3-3--------2-2-2-2-2-2--------2-2-2-2-2-2--|
A|-3-3-3-3-3-3--------2-2-2-2-2-2--------0-0-0-0-0-0--|
E|-1-1-1-1-1-1--------0-0-0-0-0-0---------------------|
   F                  Em                 Am
Alagaran ka sa adlaw nga tanan bisan pa man magluhod

e|-------1--------------------------------------------|
B|-------1--------------------------------------------|
G|-------2--------------------------------------------|
D|-------3--------------------------------------------|
A|-------3--------------------------------------------|
E|-------1--------------------------------------------|
         F
sa imung tiilan

Kung ako ka pa lang. Kung ako ka pa lang. Kung ako ka pa lang.
Kung ako ka pa lang. Kung ako ka pa lang. Kung ako ka pa lang...

e|----------0----------------------1------------------|
B|----------1--------------------3-3------------------|
G|--------0--------------------2----------------------|
D|------2--------------------0------------------------|
A|----3-----------------------------------------------|
E|----------------------------------------------------|
      C                      Dm
kay ikaw ang gisinggit ning dughan

e|-----------0-----------------1----------------------|
B|-----------1---------------3-3----------------------|
G|---------0---------------2--------------------------|
D|-------2---------------0----------------------------|
A|-----3----------------------------------------------|
E|----------------------------------------------------|
       C                 Dm
kining dughan ko nga samaran

e|-------0----------------------1---------------------|
B|-------1--------------------3-3---------------------|
G|-----0--------------------2-------------------------|
D|---2--------------------0---------------------------|
A|-3--------------------------------------------------|
E|----------------------------------------------------|
  C                       Dm
ikaw ang gisinggit ning dughan

e|---------3--0---------------------------------------|
B|---------0--1---------------------------------------|
G|---------0--0---------------------------------------|
D|---------0--2---------------------------------------|
A|---------2--3---------------------------------------|
E|---------3------------------------------------------|

           G  C
adlawng tanan