Mistaken For The Cia - Dont Get In The Car Text Guitar Tab

Learn song with the online tabulature player
-----------------------------------------------------------------------
                 Don't get in the car - Mistaken for the cia
-----------------------------------------------------------------------

Tuning: drop d

Intro/Verse
e|---------------------------------------|
B|---------------------------------------|
G|---6-6-6----6-6-6----6-6-6----6----6---|
D|-44-4-4-4----4-4-4----4-4-4----4-44-4--|
A|----------44-------22-------44---------|
D|---------------------------------------|

Pre Chorus
e|---------------------------------------|
B|---------------------------------------|
G|-66-666-666-66666----------------------|
D|-44-666-666-66666----------------------|
A|-44-444-444-44444----------------------|
D|---------------------------------------|

Chorus
e|---------------------------------------|
B|---------------------------------------|
G|-6--6--4--6----------------------------|
D|-4--6--4--6----------------------------|
A|-4--4--2--4----------------------------|
D|---------------------------------------|