Mistaken For The Cia - Just Because Text Guitar Tab

Learn song with the online tabulature player
----------------------------------------------------------------------------
                             Just Because - Mistaken for the CIA
----------------------------------------------------------------------------
Mistaken for the CIA is a new band from N.C.  You can check out their music at
http://www.purevolume.com/mistakenforthecia.
Tuning:drop d

Intro
e|--------------------------------|
B|--------11-------------11-------|
G|-10-----10-----10------10-------|
D|-10—x8--8--x8--10—-x8--8-—-x8---|
A|-8--------------8---------------|
D|--------------------------------|

Verse
e|--------------------------------|
B|--------------------------------|
G|--------------------------------|
D|-—------—10-10-10-10—-----------|
A|-8-8-8-8------------------------|
D|--------------------------------|
p.m  . . . .  .  .  .

Pre Chorus
e|--------------------------------|
B|--------------------------------|
G|-10-10-10-10-10-10-10-101010----|
D|-10—10-10-10-10-10-10-101010—---|
A|-8--8--8--8--8--8--8--8-8-8-----|
D|--------------------------------|

e|--------------------------------|
B|--------------------------------|
G|--------------------------------|
D|-8—8-8-8-8-8-8-888—-------------|
A|-8-8-8-8-8-8-8-888--------------|
D|-8-8-8-8-8-8-8-888--------------|

End Pre Chorus
e|--------------------------------|
B|--------------------------------|
G|-10-^---------------------------|
D|-10—^--10----—------------------|
A|-8--^--8—x16--------------------|
D|--------------------------------|
    p.m. .

Chorus
e|-----------------------------------------|
B|-----------11----------------------------|
G|-10--10-10-10--10-12-10-15-10-12-10-1514-|
D|-10—-8--10-8-—---—-----------------------|
A|-8---8--8--8---8--10-8--13-8--10-8--1312-|
D|-----------------------------------------|

Order
Intro x4
Verse x8
Pre chorus x2
End Pre Chorus
Chorus x2
Intro x4
Verse x8
Pre chorus x2
End Pre Chorus
Chorus x2
End Pre Chorus x4
Chorus x2
Pre Chorus x2