Mistaken For The Cia - One Too Many Text Guitar Tab

Learn the song with the online tablature player
                 One too many-Mistaken for the CIA

Verse
e|---------------------------------------------|
B|-0232-2-2-5-2-2-2-2-5-2-3-3-3-3-2-2-2-0232---|
G|----2-2-2-----2-2-2-----2-2-2-----2-2----2---|
D|---------------------------------------------|
A|---------------------------------------------|
D|---------------------------------------------|

Chorus
e|-----------------------|
B|-----------------------|
G|-----------------------|
D|-17/--5-3-5-3-5-3-5-3--|
A|-17/--5-3-5-3-5-3-5-3--|
D|-17/--5-3-5-3-5-3-5-3--|

Bridge
e|-----------------|
B|-----------------|
G|-12------10------|
D|-12-x16--10-x16--|
A|-10------8-------|
D|-----------------|

Solo
e|----------------------------------------------------------------|
B|---------------------------------------------------15151414-----|
G|-12121111-x4-1010-99-x4-12121111-x4-1010-99-121211----------14--|
D|----------------------------------------------------------------|
A|----------------------------------------------------------------|
D|----------------------------------------------------------------|

Slow Part
e|--------------------------------|
B|-17-14-17-14-15-14-121415—-15---|
G|-------------------------14-----|
D|--------------------------------|
A|--------------------------------|
D|--------------------------------|