Mister Monster - Till The End Text Guitar Tab

Learn song with the online tabulature player
Band:Mister Monster
Song:Till The End
Tuning:Standard
Tab By: Luis Alvarez
e-------------------------------------------------------------|
B-------------------------------------------------------------|
G-----11-10-11---11-10-11------15-13--------------------------|
D--13----------9----------11---------16----18p16-13/----------|
A-------------------------------------------------------------|
E-------------------------------------------------------------|


e-------------------------------------------------------------|
B-------------------------------------------------------------|
G--8----------------------8-----------------------------------|
D--8-8-8-8-8-8-8-8-8-8-8-8-9------------11--------------11----|
A--6-6-6-6-6-6-6-6-6-6-6-6-9--9-9-9-9-9-11-11-11-11-11-11-----|
E---------------------------7--7-7-7-7-7-9--9--9--9--9---9----|


This is mostly it.The only thing that changes is the
strumming. Sounds good to me. E-mail goingdown2die@yahoo.com