Misty Edwards - I Will Run Text Guitar Tab

Learn the song with the online tablature player
This is a really awesome worship song that is real easy to learn! I enjoy
playing it with my band and making it a regular prayer to God! Most of the
song is simple power chords and stuff so I'm not gonna spend my time typing
the exact rhythm of the guitar. Just listen to the song and you'll figure it
out in no time. And no I don't know the creepy part of "The earth sleeps and
slumbers..." my band doesn't play that part so I never have taken the time to
learn it.

Intro 1
e|-14----14----15----15----12----12----14----14------(Play until distortion-|
B|----12----12----12----12----12----12----12----12--------  kicks in)-------|
G|--------------------------------------------------------------------------|
D|--------------------------------------------------------------------------|
A|--------------------------------------------------------------------------|
E|--------------------------------------------------------------------------|

Intro 2
      Bm                       G                       Am
e|--------------------------------------------------------------------------|
B|--------------------------------------------------------------------------|
G|--------------------------------------------------------------------------|
D|-----9-----------------------5------------------------7-------------------|
A|-----9-----------------------5------------------------7-------------------|
E|-----7-----------------------3------------------------5-------------------|

Verse
e|--------------------------------------------------------------------------|
B|--------------------------------------------------------------------------|
G|--------------------------------------------------------------------------|
D|------9-------9-------5-------7-------------------------------------------|
A|----9---9---9---9---5---5---7---7-----------------------------------------|
E|--7-------7-------3-------5-----------------------------------------------|

Pre-Chorus
(I will run, I will run, I will run)
e|--------------------------------------------------------------------------|
B|--(this is when she is singing-------(this is when-she--------------------|
G|---------low)-------------------------is singing high)--------------------|
D|--999-999-999-999-999-999-999-999---9999~-9999~-9999~---------------------|
A|--999-999-999-999-999-999-999-999---9999~-9999~-9999~---------------------|
E|--777-777-777-777-777-777-777-777---7777~-7777~-7777~---------------------|
    *** *** *** *** *** *** *** ***   ***   ***   ***

Chorus
(intro2 with distortion)

Other than the intro it's all power chords so here it is.

Intro
Bm  G  Am     Bm    Bm G   Am     Bm
All I want is you, all I crave is you.

Verse
        Bm                 G   Am
I will run the race set before me
        Bm                     G          Am
I will seek your face as the prize of my life
        Bm                 G   Am
I will run the race set before me
        Bm                     G          Am
I will seek your face as the prize of my life

Pre-Chorus
       Bm
I will run I will run I will run I will run

I will run I will run I will run I will run

Chorus
Bm  G  Am     Bm      G   Am     Bm
All I want is you All I crave is you
Bm  G  Am     Bm      G   Am      Bm
All I want is you All I crave is you

Bridge
Bm
My soul pants for God and God alone
                  Bm
My soul pants for God and God alone