Mitch Hansen Band - Lullaby Text Guitar Tab

Learn the song with the online tablature player
Verse
-
|---------------------------------------------------------------------|
|---------------------------------------------------------------------|
|---------------------------------------------------------------------|
|----6---6h7-------6----6h7--------6---6h7--------6---6h7-------------|
|------7------7--------7------7-------7------7-------7---------7------|
|--7------------7-7---------------7------------7-7--------------------|

|----------------------------------------------------------------------------|
|----------------------------------------------------------------------------|
|----------------------------------------------------------------------------|
|------0-----0h2------------0----------0------0---0h2---------0----------0---|
|---------0--------0-------------0-2\4-----------0------0----------0-2\4-----|
|--0-------------------0-0-------------------0---------------0-0-------------|

Pre-Chorus
-
|----------------------------------------------------------------------------|
|----------------------------------------------------------------------------|
|----------------------------------------------------------------------------|
|--7-7-7-7-7-7-7-7---7-7-7-7-7-7-7-7----2-2-2-2\4--4-4-4---2-2-2-2\4---4-4-4-|
|--4-4-4-4-4-4-4-4---7-7-7-7-7-7-7-7----0-0-0-0----0-0-0---0-0-0-0-----0-0-0-|
|--4-4-4-4-4-4-4-4---7-7-7-7-7-7-7-7----0-0-0-0----0-0-0---0-0-0-0-----0-0-0-|
    Something stra
…..don’t know wha…

Figure out stumming on this part....

Chorus
-
|---------------------------------------------------------------------------|
|---------------------------------------------------------------------------|
|---------------------------------------------------------------------------|
|--7-7-7-7-7-7-7-7----2-2-2-2-2-2-2-2----4-4-4-4-4-4-4-4----0-0-0-0-0-0-0-0-|
|--7-7-7-7-7-7-7-7----2-2-2-2-2-2-2-2----4-4-4-4-4-4-4-4----0-0-0-0-0-0-0-0-|
|--7-7-7-7-7-7-7-7----2-2-2-2-2-2-2-2----4-4-4-4-4-4-4-4----0-0-0-0-0-0-0-0-|

Part After Chorus
|------------------------|
|------------------------|
|------------------------|
|--2\4---4-4-4-0\2-------|
|--0------0-0-0-0--------|
|--0------0-0-0-0--------|