Mitchell Grey - Hazel Text Guitar Tab

Learn the song with the online tablature player
Hazel - Mitchell Grey - Written by Ryan Bandong

Intro
E|---------------------|------------------|--9-------9--12--12--12---9---|
B|-------9-10-10-10-9--|-----2---5s7s5----|--9h10---10--10--10--10--10---|
G|-------9--9--9--9-9--|-----2---------6--|--9-------9---9---9---9---9---|
D|-----9---------------|---2--------------|--9h11---11--11--11--11--11---|
A|---7-----------------|------------------|--9-------9---9---9---9---9---|
E|-0-------------------|-2----------------|------------------------------|

E|-----0~-----|
B|-----5~-----|
G|-----8~-----|
D|---6--------|
A|-7----------|
E|------------|

Chords
     E       F#m      A
E|---0--------X-------0---------|
B|---0--------2-------0---------|
G|---1--------2-------2---------|
D|---2--------2-------2---------|
A|---2--------X-------0---------|
E|---0--------2-------0---------|

Verse 1
E                       F#m                      A           E
Honey, you're golden, anybody could of told you that, hm hm saccharine
        E                         F#m                        A
You're pure, you're earth giving life to me like a baby tree in the ground
                  E
I thought I found, I thought I found an angel

Chorus
             E           F#m
You glow a hazel, hazel shade of love when I see you
     A                             E
You glow a nice hazel love, you shimmer, shimmer hazel love

Verse 2
Honey, you're a star, anybody could of wished on you
But I had my wish come true
Come true like you were the star crashing down
Down down on earth, making life complete
Just you and I, ever since you came down from up high

Bridge

E|--0----0----|-------0----|--0----0---------0--------|
B|--0----0----|--5----0----|--0----0---------0--------|
G|--2----4----|--6----1----|--2----4---------1--------|
D|--2----4----|--6----2----|--2----4---------2--------|
A|--0----2----|--4----2----|--0----2---------2--------|
E|--0---------|-------0----|-----------------0--------|

   365...360...look..look...dive...beyond...shine

E|--0----0----|--0----0--0--0--0--0------|
B|--0----0----|--0----0--0--0--0--0------|
G|--2----4----|--4----4--4--4--4--1------|
D|--2----4----|--4----4--4--4--4--2------|
A|--0----2----|--2----2--0--X--X--2------|
E|--0---------|-------------4--2--0------|

  Shine...now...           ...I’ m free

In 365 you make me 360, I look alive when you look at me
Took a dive in my soul, its beyond my control to shine
To shine a little hazel now, ooo I’m free

Solo
E|-9-------------------------|--------------------------------------|
B|--------9-----------9------|------------------9--------------9-9--|
G|----11------11-9-11--------|-------9--------------------9-11------|
D|----------------------9-11-|--9-11---11--9-11---9--9-11-----------|
A|---------------------------|--------------------------------------|
E|---------------------------|--------------------------------------|

E|-12-11----11-------------|-------------------|
B|-------12----12-9----9---|---------9-12-9-7--|
G|------------------11-----|-11-9-11-----------|
D|-------------------------|-------------------|
A|-------------------------|-------------------|
E|-------------------------|-------------------|

E|-------------------------------|
B|-9-9--9-9-7-7----9-9--9-9-7-5--|
G|-9-9--9-9-9-9------------------|
D|-------------------------------|
A|-------------------------------|
E|-------------------------------|

Chorus