Mixtapes - Golden Sometimes Text Guitar Tab

Learn song with the online tabulature player
Band:Mixtapes
Song: Golden Sometimes
Album: Even on the Worst Nights

These parts are just played over through out the song. Rhythm is muted most of the song 
with some opens here and there. Not too hard to figure out.

Intro
Lead
e|-4-4-2-2-0-0-5-4---0---2-4-----------------------|
B|-------------------------------------------------|
G|-------------------------------------------------|
D|-------------------------------------------------|
A|-------------------------------------------------|
E|-------------------------------------------------|

e|-4-4-2-0-----------------------------------------|
B|---------4-4/5-----------------------------------|
G|-------------------------------------------------|
D|-------------------------------------------------|
A|-------------------------------------------------|
E|-------------------------------------------------|

Rhythm
e|-------------------------------------------------|
B|-------------------------------------------------|
G|-------------------------------------------------| x2
D|-----6-------4-----------------------------------|
A|-4-4---4-2-2---2---------------------------------|
E|-----------------5-5-5-5-5-5-5-------------------|

Verse
e|-------------------------------------------------|
B|-------------------------------------------------|
G|-------------------------------------------------| x4
D|-----6-------4-----------------------------------|
A|-4-4---4-2-2---2---------------------------------|
E|-----------------5-5-5-5-5-5-5-------------------|

End on
e|---|
B|---|
G|---|
D|-7-|
A|-7-|
E|-5-|


Interlude
Lead
e|-------------------------------------------------|
B|-5-4-0---5-7-4---5-4-0-5-------------------------|
G|-------------------------4-2---------------------|
D|-------------------------------------------------|
A|-------------------------------------------------|
E|-------------------------------------------------|


Rhythm
e|-------------------------------------------------|
B|-------------------------------------------------|
G|-------------------------------------------------| x2
D|-----6-------4-----------------------------------|
A|-4-4---4-2-2---2---------------------------------|
E|-----------------5-5-5-5-5-5-5-------------------|



Chorus
e|-------------------------------------------------|
B|-------------------------------------------------|
G|-2--9--6--4--2--9--2--6--4-----------------------| x2
D|-2--9--6--4--2--9--2--6--4-----------------------|
A|-0--7--4--2--0--7--0--4--2-----------------------|
E|-------------------------------------------------|