Mixtapes - Something Better Text Guitar Tab

Learn the song with the online tablature player
Band: Mixtapes
Song: Something Better
Album: Even on the Worst of Nights

Intro
e|-----|
B|-----|
G|-9---|
D|-9---|
A|-7---|
E|-----|

Verse
e|-------------------------------------------------|
B|-------------------------------------------------|
G|-------6--4--------------------------------------|
D|-2--7--6--4--------------------------------------| x2
A|-2--7--4--2--------------------------------------|
E|-0--5--------------------------------------------|

e|------|
B|------|
G|---4--|
D|-7-4--| x4
A|-7-2--|
E|-5----|

e|-------------------------------------------------|
B|-------------------------------------------------|
G|-------6--4--------------------------------------|
D|-2--7--6--4--------------------------------------| x2
A|-2--7--4--2--------------------------------------|
E|-0--5--------------------------------------------|

e|------|
B|------|
G|---4--|
D|-7-4--| x4
A|-7-2--|
E|-5----|

Chorus
e|-------------------------------------------------|
B|-------------------------------------------------|
G|----4--6--2--------------------------------------|
D|-2--4--6--2--------------------------------------| x4
A|-2--2--4--0--------------------------------------|
E|-0-----------------------------------------------|

End On
e|----|
B|----|
G|----|
D|-2--|
A|-2--|
E|-0--|

Verse
e|-------------------------------------------------|
B|-------------------------------------------------|
G|-------6--4--------------------------------------|
D|-2--7--6--4--------------------------------------| x2
A|-2--7--4--2--------------------------------------|
E|-0--5--------------------------------------------|

e|------|
B|------|
G|---4--|
D|-7-4--| x4
A|-7-2--|
E|-5----|

Chorus
e|-------------------------------------------------|
B|-------------------------------------------------|
G|----4--6--2--------------------------------------|
D|-2--4--6--2--------------------------------------| x4
A|-2--2--4--0--------------------------------------|
E|-0-----------------------------------------------|

End On
e|----|
B|----|
G|----|
D|-2--|
A|-2--|
E|-0--|