Miyavi - Sakihokoru Hana You Ni Text Guitar Tab

Learn the song with the online tablature player
This is an ascii version of the guitar pro tab, so thanks to whoever did that.

Guitar I
     E  E  E  E  B           E  E  E  E  B           E  E  E  E  B
D||-----------0--L--------|-----------0--L--------|-----------------------|
A||--------1--------------|--------3--------------|-----------1--L--------|
F||-----2-----------------|-----4-----------------|--------0--------------|
C||--3--------------------|--5--------------------|-----2-----------------|
G||-----------------------|-----------------------|--0--------------------|
D||-----------------------|-----------------------|-----------------------|

  E  E  E  E  H           E  E  E  E  H           E  E  E  E  E  Q.
--------3--------------|-----------0--L--------|-----------0------------|
-----------1--L--------|--------1--------------|--------3-----3---------|
-----0-----------------|-----2-----------------|-----4-----------4------|
-----------------------|--3--------------------|--5---------------------|
--3--------------------|-----------------------|------------------------|
-----------------------|-----------------------|------------------------|

  H        E  E  Q        E  S S S  S S S S S S S S  S S S
-----------------------|-----------------------------------|
-----------------------|--------------0----------------0-x-|
--L--------------------|---------0h-2-------------0h-2-----|
-----------------------|--2-------------2---2--------------|
--------------x--x\----|--0--x-x--------0---0-x-x----------|
-----------------------|-----------------------------------|

  E  S S S  S S S S S S S S S S S    E  S S S  S S S S S S S S  S S S
----------------------------------|-----------------------------------|
--------------0-------------------|--------------0----------------0-x-|
---------0h-2-------3-3-3-3-3-3-3-|---------0h-2-------------0h-2-----|
--2-------------2-----------------|--2-------------2---2--------------|
--0--x-x--------0---1-1-1-1-1-1-1-|--0--x-x--------0---0-x-x----------|
----------------------------------|-----------------------------------|

  E  S S S  S S S S S S S S  S E     E  S S S  S S S S S S S S  S S S
----------------------------------|-----------------------------------|
--------------0-------------------|--------------0----------------0-x-|
---------0h-2-------8-8-8-8h-9-9--|---------0h-2-------------0h-2-----|
--2-------------2-----------------|--2-------------2---2--------------|
--0--x-x--------0---6-6-6-6h-7-7--|--0--x-x--------0---0-x-x----------|
----------------------------------|-----------------------------------|

  E  S S S  S S S S S S S S S S S    E  S S S  S S S S S S S S  S S S
----------------------------------|-----------------------------------|
--------------0-------------------|--------------0----------------0-x-|
---------0h-2-------3-3-3-3-3-3-3-|---------0h-2-------------0h-2-----|
--2-------------2-----------------|--2-------------2---2--------------|
--0--x-x--------0---1-1-1-1-1-1-1-|--0--x-x--------0---0-x-x----------|
----------------------------------|-----------------------------------|

  S E  S E  S S S  S S  S Q       E  S S S S S S S S S S S S S S
-------------------------------|---------------------------------|
-------------------------------|---------------------------------|
--8-9--8-8--7-7-----------5----|---------------5---5---5-5-------|
---------------------5h-7-5----|--7------5-7---4---4---4-4---5-7-|
--6-7--6-6--5-5-5h-6------0----|--7--x-x-5-7---5---5---5-5---5-7-|
-------------------------------|--5------5-5---------------------|

  E  S S S S S S S S S S S  S S  S    E  S S S S S S S S S S S S S S
-----------------------------------|---------------------------------|
-----------------------------------|---------------------------------|
-----------------------------------|---------------5---5---5-5-------|
--7------5-7---7---5---5-5s-6------|--7------5-7---4---4---4-4---5-7-|
--7--x-x-5-7---7-------------------|--7--x-x-5-7---5---5---5-5---5-7-|
--5------5-5---5---3---3-3s-4-2h-5-|--5------5-5---------------------|

  S S S S S  S S S S S S S S S S S    E  S S S S S S S S S S S S S S
-----------------------------------|---------------------------------|
---------------0-------------------|---------------------------------|
--9-8-8-8-0h-2---2---8---7-7-------|---------------5---5---5-5-------|
-----------------------------7-5-7-|--7------5-7---4---4---4-4---5-7-|
--7-6-6-6------------6---5-5-7-5-7-|--7--x-x-5-7---5---5---5-5---5-7-|
-----------------------------5-5-5-|--5------5-5---------------------|

  E  S S S S S S S S S S S  S S  S    E  S S S S S S S S S S S S S S
-----------------------------------|---------------------------------|
-----------------------------------|---------------------------------|
-----------------------------------|---------------5---5---5-5-------|
--7------5-7---5---5---5-5s-6------|--7------5-7---4---4---4-4---5-7-|
--7--x-x-5-7-----------------------|--7--x-x-5-7---5---5---5-5---5-7-|
--5------5-5---3---3---3-3s-4-2h-5-|--5------5-5---------------------|

  S S  S S S  S S S S S S S S S E     E  S S S S S S E  S S E  E
-----------------------------------|------------------------------|
--------------------------------0--|------------------------------|
----9s-8-8-8s-7-5---------------0--|------------------------------|
----------------5-7---5---5-5-5-0--|------------------------------|
----7s-6-6-6s-5---7---5---5-5-5----|--7--x-x---3------------------|
----------------------5---5-5-5----|--5------3-----3----3-3----x--|

  E  S S S S S S S S S S E  E     E  S S S S E  S S S S E  E
-------------------------------|------------------------------|
-------------------------------|------------------------------|
-------------------------------|----------------------5-------|
-------------------------------|----------------------5-------|
--7--x-x-------x------------x--|--7--x-x---3----------5----x--|
--5------3-5-----3-3-3-5-------|--5------3------3-3-3---------|

  E  S S S  S S S S S S S S S S S    E  S S S S S S S S S S E  E
----------------------------------|-------------------------------|
----------------------------------|-------------------------------|
--------------------8---7---------|-------------------------------|
----------------------------------|-------------------------------|
--7--x-x--------x---6---5---x-x-x-|--7--x-x-----x-x-------3----x--|
--5------3h-5---------------------|--5------3-5-----3-3-3---------|

  E  S S S  S E  S S S S E  E     E  S S S  S S S S S S S E  E
-------------------------------|--------------------------------|
-------------------------------|--------------------------------|
-------------------------------|------------------5-5-5-5-------|
-------------------------------|------------------4-4-4-4-------|
--7--x-x------x-------------x--|--7--x-x------x-x-5-5-5-5----x--|
--5------3h-5----3-3-3-5-------|--5------3h-5-------------------|

  E  S S S S S S S S S S E  S S    E  E  Q    Q     Q
--------------------------------|------------------------|
-------------------9---8--------|------------------------|
-------9-9-9---7----------------|------------------------|
-------------------6---5--------|------------------10----|
--7--x-7-7-7---5------------7-7-|--7----------------8----|
--5-------------------------5-5-|--5----------------8----|

  E  S S S S S S S S S S S S S S    E  S S S S S S S S S S S S S S
---------------------------------|---------------------------------|
---------------------------------|---------------------------------|
---------------5---5---5-5---5---|---------------------------------|
---------5-7---4---4---4-4---5-7-|---------5-7---5---5---5-5---5-7-|
--7--x-x-5-7---5---5---5-5---5-7-|--7--x-x-5-5-----------------5-7-|
--5------5-5---------------------|--5------5-5---3---3---3-3-------|

  E  S S S S S S S S S S S S S S    S E  S E  S S S S S S E  S S
---------------------------------|-------------------------------|
---------------------------------|-------------------------------|
---------------5---5---5-5---5---|--9-9--8-8--5-----8-9-8-9--5---|
---------5-7---4---4---4-4---5-7-|------------5-7------------5-7-|
--7--x-x-5-5---5---5---5-5---5-7-|--7-7--6-6----7---6-7-6-7----7-|
--5------5-5---------------------|-------------------------------|

  E  E  Q    H           E  S S S  S S S S  S S S E  E
----------------------|---------------------------------|
----------------------|---------------------------------|
----------------------|---------------------------------|
----------------------|-------------------------5-------|
--7-------------------|--7--x-x------x-x------x-3----x--|
--5-------------------|--5------3h-5-----3h-5-----------|

  E  S S S  S S S S  S S S E  E     E  S S S  S S S S S S S S S S S
---------------------------------|----------------------------------|
---------------------------------|----------------------------------|
---------------------------------|----------------7---8---9---------|
-------------------------5-------|----------------------------------|
--7--x-x------x-x------x-3----x--|--7--x-x--------5---6---7-x-x-x-x-|
--5------3h-5-----3h-5-----------|--5------3h-5---------------------|

  E  S S S  S S S S  S S S E  E     E  S S S  S S S S  S S S E  E
---------------------------------|---------------------------------|
---------------------------------|---------------------------------|
---------------------------------|---------------------------------|
-------------------------5-------|-------------------------5-------|
--7--x-x------x-x------x-3----x--|--7--x-x------x-x------x-3----x--|
--5------3h-5-----3h-5-----------|--5------3h-5-----3h-5-----------|

  S  S S S E  E  E  S S E  E     S S S S S S E  S S E  E  S  S
------------------------------|--------------------------------|
------------------------------|--------------------------------|
------------------------------|--------9-8-8-8--7-7----5-------|
---------5-------4----5-------|------------------------5-------|
-------x-3----x--5--x-3----x--|--7-7-x-7-6-6-6--5-5------------|
--3h-5------------------------|--5-5----------------------3h-5-|

                                                    NH
  E  E  Q    Q    Q        S S S S E  S S S S E     Q
------------------------|------------------------<>12----|
------------------------|------------------------<>12----|
------------------------|------------------------<>12----|
------------------------|--5-2---2----5-2---2------------|
--7---------------x\----|--3-0-x-0----3-0-x-0------------|
--5---------------------|--------------------------------|

                                                         NH
  S S S S E  S S E  S S Q       S S S S E  S S S S E     Q
-----------------------------|------------------------<>12----|
-----------------------------|------------------------<>12----|
-----------------------------|------------------------<>12----|
--5-2---2----5-2-------------|--5-2---2----5-2---2------------|
--3-0-x-0-x--3-0-x--x-x------|--3-0-x-0----3-0-x-0------------|
-----------------------------|--------------------------------|

  E  S S S S S S S S S S S S S S    E  S S E  S S E  S  S S S S S
---------------------------------|--------------------------------|
---------------------------------|--------------------------------|
-----9-9-9-9-9-9-9-9-9-8---7-----|---------5------7--7-10---------|
---------------------------------|--7-----------------------------|
--x--7-7-7-7-7-7-7-7-7-6---5---x-|-----x-x-3--x-x-5--5--8-x-x-x-x-|
---------------------------------|--5-----------------------------|

  E  S S E  S S E  S  S S S S S    E  S S E  S S E  S  S S S S S
--------------------------------|--------------------------------|
--------------------------------|--------------------------------|
---------5------7--7-10---------|---------5------7--7-10---------|
--7-----------------------------|--7-----------------------------|
-----x-x-3--x-x-5--5--8-x-x-x-x-|-----x-x-3--x-x-5--5--8-x-x-x-x-|
--5-----------------------------|--5-----------------------------|

  E  S S E  S S E  S  S S S S S    E  S S E  S S E  S  S S S S S
--------------------------------|--------------------------------|
--------------------------------|--------------------------------|
---------5------7--7-10---------|---------5------7--7-10---------|
--7-----------------------------|--7-----------------------------|
-----x-x-3--x-x-5--5--8-x-x-x-x-|-----x-x-3--x-x-5--5--8-x-x-x-x-|
--5-----------------------------|--5-----------------------------|

  E  S S E  S S E  S  S S S S S    E  S S E  S S E  S  S S S S S
--------------------------------|--------------------------------|
--------------------------------|--------------------------------|
---------5------7--7-10---------|---------5------7--7-10---------|
--7-----------------------------|--7-----------------------------|
-----x-x-3--x-x-5--5--8-x-x-x-x-|-----x-x-3--x-x-5--5--8-x-x-x-x-|
--5-----------------------------|--5-----------------------------|

   S  S  S  S  S  S  S  S S S S S S S S S    Q    E  S S S S E  E  S S
------------------------------------------|--0----0--0-0-L-0-0--0--0-0-|
------------------------------------------|--1----1--1-1-L-1-1--1--1-1-|
--10-10-10-10-10-10-10-10-9-9-9-9-9-9-9-9-|--2----2--2-2-L-2-2--2--2-2-|
--10-10-10-10-10-10-10-10-9-9-9-9-9-9-9-9-|--3----3--3-3-L-3-3--3--3-3-|
---8--8--8--8--8--8--8--8-7-7-7-7-7-7-7-7-|----------------------------|
------------------------------------------|----------------------------|

  E  E  E  S S E  E  E  S S    E  E  E  S S E  E  E  S S
--0--0--0--0-0-0--0--0--0-0-|--0--0--0--0-0-0--0--0--0-0-|
--3--3--3--3-3-3--3--3--3-3-|--1--1--1--1-1-1--1--1--1-1-|
--4--4--4--4-4-4--4--4--4-4-|--0--0--0--0-0-0--0--0--0-0-|
--5--5--5--5-5-5--5--5--5-5-|--2--2--2--2-2-2--2--2--2-2-|
----------------------------|--0--0--0--0-0-0--0--0--0-0-|
----------------------------|----------------------------|

  E  E  E  S S S S E  E  S S    Q    E  S S S S E  E  S S
--0--0--0--0-0-0-0-0--0--0-0-|--0----0--0-0-L-0-0--0--0-0-|
--1--1--1--1-1-1-1-1--1--1-1-|--1----1--1-1-L-1-1--1--1-1-|
--0--0--0--0-0-0-0-0--0--0-0-|--2----2--2-2-L-2-2--2--2-2-|
--2--2--2--2-2-2-2-2--2--2-2-|--3----3--3-3-L-3-3--3--3-3-|
--3--3--3--3-3-3-3-3--3--3-3-|----------------------------|
-----------------------------|----------------------------|

  E  E  E  S S E  E  E  S S    E  E  E  S S S S E  E  S S
--0--0--0--0-0-0--0--0--0-0-|--0--0--0--0-0-0-0-0--0--0-0-|
--3--3--3--3-3-3--3--3--3-3-|--1--1--1--1-1-1-1-1--1--1-1-|
--4--4--4--4-4-4--4--4--4-4-|--0--0--0--0-0-0-0-0--0--0-0-|
--5--5--5--5-5-5--5--5--5-5-|--2--2--2--2-2-2-2-2--2--2-2-|
----------------------------|--3--3--3--3-3-3-3-3--3--3-3-|
----------------------------|-----------------------------|

  E  E  E  S S S S E  E  E     E  E  E  S S E  E  E  S S
--0--0--0--0-0-L-0-0--0--0--|--0--0--0--0-0-0--0--0--0-0-|
--3--3--3--3-3-L-3-3--3--3--|--3--3--3--3-3-3--3--3--3-3-|
--1--1--1--1-1-L-1-1--1--1--|--4--4--4--4-4-4--4--4--4-4-|
--2--2--2--2-2-L-2-2--2--2--|--5--5--5--5-5-5--5--5--5-5-|
----------------------------|----------------------------|
----------------------------|----------------------------|

  E  E  E  S S S S E  E  S S    E  E  E  S S S S E  E  S S
--0--0--0--0-0-0-0-0--0--0-0-|--0--0--0--0-0-0-0-0--0--0-0-|
--1--1--1--1-1-1-1-1--1--1-1-|--3--3--3--3-3-3-3-3--3--3-3-|
--0--0--0--0-0-0-0-0--0--0-0-|--0--0--0--0-0-0-0-0--0--0-0-|
--2--2--2--2-2-2-2-2--2--2-2-|--2--2--2--2-2-2-2-2--2--2-2-|
--3--3--3--3-3-3-3-3--3--3-3-|-----------------------------|
-----------------------------|-----------------------------|

  E  E  E  S S E  E  E  S S    Q    E  S S S S E  E  S S
--0--0--0--0-0-0--0--0--0-0-|--0----0--0-0-L-0-0--0--0-0-|
--1--1--1--1-1-1--1--1--1-1-|--1----1--1-1-L-1-1--1--1-1-|
--0--0--0--0-0-0--0--0--0-0-|--2----2--2-2-L-2-2--2--2-2-|
--2--2--2--2-2-2--2--2--2-2-|--3----3--3-3-L-3-3--3--3-3-|
--0--0--0--0-0-0--0--0--0-0-|----------------------------|
----------------------------|----------------------------|

  E  E  E  S S E  E  E  S S    S S E  Q    Q    Q
--0--0--0--0-0-0--0--0--0-0-|------------------------|
--3--3--3--3-3-3--3--3--3-3-|------------------------|
--4--4--4--4-4-4--4--4--4-4-|------------------------|
--5--5--5--5-5-5--5--5--5-5-|------------------------|
----------------------------|-------------------3----|
----------------------------|--3-5-------------------|

  E  S S S S S S S S S S S S S S    E  S S S S S S S S S S S S S S
---------------------------------|---------------------------------|
---------------------------------|---------------------------------|
---------------5---5---5-5-------|---------------5-----------------|
---------------4---4---4-4-------|---------------4---5---5-5---6---|
--7--x-x-----x-5---5---5-5---6-5-|--7--x-x-------5-----------------|
--5------3-5---------------------|--5------3-5-------3---3-3---4---|

  E  S S S S S S S S S S S S S S    S S  S S E  S S S S S S S S S S
---------------------------------|----------------------------------|----|----|
---------------------------------|----------------------------------|----|----|
---------------5---5---5-5-------|----9s-8-8-8--7-7---8---7---------|----|----|
---------------4---4---4-4-------|----------------------------------|----|----|
--7--x-x-----x-5---5---5-5-------|----7s-6-6-6--5-5---6---5---7---7-|----|----|
--5------3-5-----------------3-5-|----------------------------5---5-|----|----|

       H        Q    S  S S S    E  E  E  S S S S S S E  S  S
----|-------------------------|-------------------------------|
----|-------------------------|-------------------------------|
----|----------------9s-7-5---|-------------5-5---------------|
----|----------------9s-7-5-7-|--5--7-----------5---7----5h-7-|
----|-----------------------7-|--5--7--7--x-------------------|
----|-------------------------|--3--5-------------------------|

  S S S S S S S S E.    S S S S S    E  E.    S S S E.    S S S E
----------------------------------|-----7br---------7br------------|
------------------7br---5-----5---|-----7br---5---x-7br---x---x----|
--5---------------7br---5-----5---|--------------------------------|
------7-------------------------7-|-----------------------------5--|
----------x-7-7-7-----------x-----|-----------------------------5--|
------------5-5-5-----------------|--------------------------------|

  S S  E.    S S  S S S S S S S S S    E  E  Q    Q    Q
-------------8----------------------|------------------------|
--x-x-10br---8---10---8-x-x---------|------------------------|
------------------------------7-----|------------------------|
------------------9---7-----------7-|------------------------|
------------------------------7-----|--7---------------x/----|
----------------------------------5-|--5---------------------|

  H        E  Q.        Q    S  E  S S S S S E  S  S
---------------------|-------------------------------|
--------------6------|-------------------------------|
--------------7------|---------------5---------------|
---------------------|---------------4---------------|
---------------------|--7----------x-5-x-------------|
---------------------|--5----3h-5----------5----3h-5-|

  E  S S S  S S S S S S S S S E     E  S S S S E  E.  S E  E
---------------------------------|----------------------------|
---------------------------------|----------------------------|
----------------7---8---9--------|--------------------5-------|
---------------------------------|--------------------4-------|
--7--x-x------x-5---6---7---x-x--|--7--x-x-----x--x---5----x--|
--5------3h-5--------------------|--5------3-5----------------|

  E  S S S S S S S S S S S S E     E  S S E  S S E.  S E  E
--------------------------------|----------------------------|
--------------------------------|----------------------------|
--------------------------------|----------------------------|
-------------------5---7--------|-----5-5--------3---5-------|
--7--x-x-----x-x-----------x-x--|--7--5-5----x-x-5---5----x--|
--5------3-5-------3---5--------|--5-------------------------|

  E  S S E  S S S S S S E  S S    E  E  Q    Q    Q
-------------------------------|------------------------|
-------------------------------|------------------------|
------------8-8---7---5--------|------------------------|
-------------------------------|--7---------------------|
--7--x-x----6-6---5---3----x-x-|--7---------------x\----|
--5----------------------------|--5---------------------|

  S S S S S S S S S S S S S S S S    S S S S E  S S S S E  S S S S
----------------------------------|--------------------------------|
----------------------------------|--------------------------------|
----------------------------------|--------------------------------|
----------------------------------|--5-2---2----5-2---2------------|
--x-x-x-x-x-x-x-x-x-x-x-x-x-x-x-x-|--3-0-5-0----3-0-5-0----x-x-x-x-|
----------------------------------|------3----------3--------------|

  S S S S E  S S E  S S S S S S    E  E  Q    Q    Q
--------------------------------|------------------------|
--------------------------------|------------------------|
--------------------------------|------------------------|
--5-2---2----5-2----------------|--7---------------------|
--3-0-5-0----3-0----x-x-x-x-x-x-|--7---------------x\----|
------3-------------------------|--5---------------------|

  E  S S S S S S S S S S S S S S    E  S S E  S S E  S  S S S S S
---------------------------------|--------------------------------|
---------------------------------|--------------------------------|
-----9-9-9-9-9-9-9-9-9-8---7---7-|---------5------7--7-10---------|
---------------------------------|--7------5----------------------|
--x--7-7-7-7-7-7-7-7-7-6---5---5-|--7--x-x-3--x-x-5--5--8-x-x-x-x-|
---------------------------------|--5-----------------------------|

  E  S S E  S S E  S  S S S S S    E  S S E  S S E  S  S S S S S
--------------------------------|--------------------------------|
--------------------------------|--------------------------------|
---------5------7--7-10---------|---------5------7--7-10---------|
--7------5----------------------|--7------5----------------------|
--7--x-x-3--x-x-5--5--8-x-x-x-x-|--7--x-x-3--x-x-5--5--8-x-x-x-x-|
--5-----------------------------|--5-----------------------------|

  E  S S E  S S E  S  S S S S S    E  S S E  S S E  S  S S S S S
--------------------------------|--------------------------------|
--------------------------------|--------------------------------|
---------5------7--7-10---------|---------5------7--7-10---------|
--7------5----------------------|--7------5----------------------|
--7--x-x-3--x-x-5--5--8-x-x-x-x-|--7--x-x-3--x-x-5--5--8-x-x-x-x-|
--5-----------------------------|--5-----------------------------|

  E  S S E  S S E  S  S S S S S    E  S S E  S S E  S  S S S S S
--------------------------------|--------------------------------|
--------------------------------|--------------------------------|
---------5------7--7-10---------|---------5------7--7-10---------|
--7------5----------------------|--7------5----------------------|
--7--x-x-3--x-x-5--5--8-x-x-x-x-|--7--x-x-3--x-x-5--5--8-x-x-x-x-|
--5-----------------------------|--5-----------------------------|

   S  S  S  S  S  S  S  S S S S S S S S S    Q    E  E  E  E  E  E
------------------------------------------|--0----0--0--L--0--0--0--|
------------------------------------------|--1----1--1--L--1--1--1--|
--10-10-10-10-10-10-10-10-9-9-9-9-9-9-9-9-|--2----2--2--L--2--2--2--|
------------------------------------------|--3----3--3--L--3--3--3--|
---8--8--8--8--8--8--8--8-7-7-7-7-7-7-7-7-|-------------------------|
------------------------------------------|-------------------------|

  E  E  E  S S E  E  E  S S    E  E  E  E  S S E  E  S S
----------------------------|--0--0--0--0--L-0-0--0--0-0-|
--3--3--3--3-3-L--3--3--3-3-|--1--1--1--1--L-1-1--1--1-1-|
--0--0--0--0-0-L--0--0--0-0-|--0--0--0--0--L-0-0--0--0-0-|
--0--0--0--0-0-L--0--0--0-0-|--2--2--2--2--L-2-2--2--2-2-|
--2--2--2--2-2-L--2--2--2-2-|--0--0--0--0--L-0-0--0--0-0-|
--3--3--3--3-3-L--3--3--3-3-|----------------------------|

  E  E  E  S S E  E  E  S S    Q    E  E  E  E  E  E
--0--0--0--0-0-L--0--0--0-0-|--0----0--0--L--0--0--0--|
--0--0--0--0-0-L--0--0--0-0-|--1----1--1--L--1--1--1--|
--0--0--0--0-0-L--0--0--0-0-|--2----2--2--L--2--2--2--|
--2--2--2--2-2-L--2--2--2-2-|--3----3--3--L--3--3--3--|
--3--3--3--3-3-L--3--3--3-3-|-------------------------|
----------------------------|-------------------------|

  E  E  E  S S E  E  E  S S    E  E  E  S S S S E  E  S S
----------------------------|--0--0--0--0-0-0-0-0--0--0-0-|
--3--3--3--3-3-L--3--3--3-3-|--1--1--1--1-1-1-1-1--1--1-1-|
--0--0--0--0-0-L--0--0--0-0-|--0--0--0--0-0-0-0-0--0--0-0-|
--0--0--0--0-0-L--0--0--0-0-|--2--2--2--2-2-2-2-2--2--2-2-|
--2--2--2--2-2-L--2--2--2-2-|--3--3--3--3-3-3-3-3--3--3-3-|
--3--3--3--3-3-L--3--3--3-3-|-----------------------------|

  S S E  E  S S S S E  E  S S    E  E  S S S S E  S S S S S S
--4-4-4--4--4-4-4-4-4--4--4-4-|--0--0--0-0-0-0-0--0-0-L-0-0-0-|
--3-3-3--3--3-3-3-3-3--3--3-3-|--1--1--1-1-1-1-1--1-1-L-1-1-1-|
--4-4-4--4--4-4-4-4-4--4--4-4-|--2--2--2-2-2-2-2--2-2-L-2-2-2-|
--2-2-2--2--2-2-2-2-2--2--2-2-|--3--3--3-3-3-3-3--3-3-L-3-3-3-|
------------------------------|-------------------------------|
------------------------------|-------------------------------|

  E  E  S S S S E  S S S S S S    E  E  S S S S E  S S S S S S
-------------------------------|-------------------------------|
--3--3--3-3-3-3-3--3-3-L-3-3-3-|--3--3--3-3-3-3-3--3-3-L-3-3-3-|
--0--0--0-0-0-0-0--0-0-L-0-0-0-|--0--0--0-0-0-0-0--0-0-L-0-0-0-|
--0--0--0-0-0-0-0--0-0-L-0-0-0-|--2--2--2-2-2-2-2--2-2-L-2-2-2-|
--2--2--2-2-2-2-2--2-2-L-2-2-2-|--2--2--2-2-2-2-2--2-2-L-2-2-2-|
--3--3--3-3-3-3-3--3-3-L-3-3-3-|--0--0--0-0-0-0-0--0-0-L-0-0-0-|

  E  E  S S S S E  S S S S S S    E  E  S S S S E  S S S S S S
--0--0--0-0-0-0-0--0-0-L-0-0-0-|--0--0--0-0-0-0-0--0-0-L-0-0-0-|
--1--1--1-1-1-1-1--1-1-L-1-1-1-|--1--1--1-1-1-1-1--1-1-L-1-1-1-|
--0--0--0-0-0-0-0--0-0-L-0-0-0-|--2--2--2-2-2-2-2--2-2-L-2-2-2-|
--2--2--2-2-2-2-2--2-2-L-2-2-2-|--3--3--3-3-3-3-3--3-3-L-3-3-3-|
--0--0--0-0-0-0-0--0-0-L-0-0-0-|-------------------------------|
-------------------------------|-------------------------------|

  E  E  S S S S E  S S S S S S    E  E  S S S S E  S S S S S S
-------------------------------|--0--0--0-0-0-0-0--0-0-L-0-0-0-|
--3--3--3-3-3-3-3--3-3-L-3-3-3-|--1--1--1-1-1-1-1--1-1-L-1-1-1-|
--0--0--0-0-0-0-0--0-0-L-0-0-0-|--0--0--0-0-0-0-0--0-0-L-0-0-0-|
--0--0--0-0-0-0-0--0-0-L-0-0-0-|--2--2--2-2-2-2-2--2-2-L-2-2-2-|
--2--2--2-2-2-2-2--2-2-L-2-2-2-|--0--0--0-0-0-0-0--0-0-L-0-0-0-|
--3--3--3-3-3-3-3--3-3-L-3-3-3-|-------------------------------|

  E  E  S S E  E  E  S S E     E  E  S S S S E  S S S S S S
--0--0--0-0-0--0--0--0-0-0--|--0--0--0-0-0-0-0--0-0-L-0-0-0-|
--1--1--1-1-1--1--1--1-1-1--|--1--1--1-1-1-1-1--1-1-L-1-1-1-|
--0--0--0-0-0--0--0--0-0-0--|--2--2--2-2-2-2-2--2-2-L-2-2-2-|
--2--2--2-2-2--2--2--2-2-2--|--3--3--3-3-3-3-3--3-3-L-3-3-3-|
--3--3--3-3-3--3--3--3-3-3--|-------------------------------|
----------------------------|-------------------------------|

  E  E  S S S S E  S S S S S S    E  E  S S S S E  S S S S S S
-------------------------------|-------------------------------|
--3--3--3-3-3-3-3--3-3-L-3-3-3-|--3--3--3-3-3-3-3--3-3-L-3-3-3-|
--0--0--0-0-0-0-0--0-0-L-0-0-0-|--0--0--0-0-0-0-0--0-0-L-0-0-0-|
--0--0--0-0-0-0-0--0-0-L-0-0-0-|--2--2--2-2-2-2-2--2-2-L-2-2-2-|
--2--2--2-2-2-2-2--2-2-L-2-2-2-|--2--2--2-2-2-2-2--2-2-L-2-2-2-|
--3--3--3-3-3-3-3--3-3-L-3-3-3-|--0--0--0-0-0-0-0--0-0-L-0-0-0-|

  E  E  S S S S E  S S S S S S    E  E  S S S S E  S S S S S S
--0--0--0-0-0-0-0--0-0-L-0-0-0-|--0--0--0-0-0-0-0--0-0-L-0-0-0-|
--1--1--1-1-1-1-1--1-1-L-1-1-1-|--1--1--1-1-1-1-1--1-1-L-1-1-1-|
--0--0--0-0-0-0-0--0-0-L-0-0-0-|--2--2--2-2-2-2-2--2-2-L-2-2-2-|
--2--2--2-2-2-2-2--2-2-L-2-2-2-|--3--3--3-3-3-3-3--3-3-L-3-3-3-|
--0--0--0-0-0-0-0--0-0-L-0-0-0-|-------------------------------|
-------------------------------|-------------------------------|

  E  E  S S S S E  S S S S S S    E  E  Q    Q    Q
-------------------------------|-----------------------|
--3--3--3-3-3-3-3--3-3-L-3-3-3-|-----------------------|
--0--0--0-0-0-0-0--0-0-L-0-0-0-|-----------------------|
--0--0--0-0-0-0-0--0-0-L-0-0-0-|--2--------------------|
--2--2--2-2-2-2-2--2-2-L-2-2-2-|--0---------------3----|
--3--3--3-3-3-3-3--3-3-L-3-3-3-|-----------------------|

  E  S S S  S S S S S S S E  S  S    E  S S S  S S S S S S S S S E
----------------------------------|---------------------------------|
----------------------------------|---------------------------------|
----------------5---5---5-5-------|----------------5----------------|
----------------4---4---4-4-------|---------5h-7-------5---5-5-6-6--|
--7--x-x--------5---5---5-5--6p-5-|--7--x-x-------------------------|
--5------3h-5---------------------|--5-----------------3---3-3-4-4--|

  E  S S S  S S S S S S S E  S  S    S S  S S S  S S S E  S  S E  E
----------------------------------|----------------------------------|
----------------------------------|----------------------------------|
----------------5---5---5-5-------|----9s-8-8-8s-7-7-7----5----------|
----------------4---4---4-4-------|----------------------------2-----|
--7--x-x--------5---5---5-5--6p-5-|----7s-6-6-6s-5-5-5----3p-0-0-----|
--5------3h-5---------------------|----------------------------------|

  E  E  S S E  H
------------------------||
------------------------||
-----2----2----2--------||
-----2----2----2--------||
-----0----0----0--------||
------------------------||

Duration Legend

W - whole
H - half
Q - quarter
E - 8th
S - 16th
T - 32nd
X - 64th
. - note dotted
|-n-|  - n-tuplets

L - tied note
x - dead note
g - grace note
(n) - ghost note
> - accentuded note
NH - natural harmonic
AH - artificial harmonic
TH - tapped harmonic
SH - semi harmonic
PH - pitch harmonic
h - hammer on
p - pull off
b - bend
br - bendRelease
pb - preBend
pbr - preBendRelease
brb - bendReleaseBend
\n/ - tremolo bar dip
\n - tremolo bar dive
-/n - tremolo bar Release up
/n\ - tremolo bar inverted dip
/n - tremolo bar return
-\n - tremolo bar Release down
S - shift slide
s - legato slide
/ -  slide into from below or out of upwards
\ -  slide into from above or out of downwards
~ - vibrato
W - wide vibrato
tr - trill
TP - tremolo picking
T - tapping
S - slap
P - pop
< - fade in
^ - brush up
v - brush down