Mllcheesecake - The Insane Song Of Insanity Text Guitar Tab

Learn song with the online tabulature player
Into part 1. Reapeat this until Intro part 2.
----------------------|
----------------------|
----------------------|
-2-2-3~--4------------|
-3-------2-2-3-2-3-0~-|
----------------------|

Intro part 2. Repeat until verse.
-------------------------------|
-------------------------------|
-------------------------------|
-------------------------------|
-2-2-2-2-3-2-2-2-2-2-2-3-2-0-0-|
-------------------------------|

Verse 1.
---------------------------------------------------------|
---------------------------------------------------------|
---------------------------------------------------------|
---------------------------------------------------------|
-2-2-2-2-3-2-2-2-2-2-2-3-2-2-2-2-2-2-3-2-2-2-2-2-3-2-0-2-|
---------------------------------------------------------|

Still verse one after that ^ is played one time play this.
-------------------------------------------|
-------------------------------------------|
-------------------------------------------|
---------------------------2-4-2-0---------|
-2-2-2-2-3-2-2-2-2-2-2-3-2---------4-2-0-2-|
-------------------------------------------|
Those two riffs are rotated each time played. And do it until chorus.

Chorus.
----------------------------------------------------------|
----------------------------------------------------------|
----------------------------------------------------------|   x2
-4-4-4-4s5-5-5-5s7-7-7-7s5-5-5-4-4-4s5-5-5----------------|
-2-2-2-2s3-3-3-3s5-5-5-5s3-3-3-2-2-2s3-3-3-5-5-5s7-7-7----|
-------------------------------------------3-3-3s5-5-5----|

Verse 2. reapeat verse 1.

Chorus 2. Repeat chorus 1.

Bridge. Repeat intro Part 2.

Solo. Turn on wah.
--------------------------------------------|
--------------------------------------------|
--------------------------------------------|
---------------------17p14--15p14-----------|  x2
-14-14-14-14-15p14-14-----14-----14-15p14---|
--------------------------------------------|

then
-----------------------------------------------------------------------------|
-----------------------------------------------------------------------------|
-----------------------------------------------------------------------------|
---------------------18-15--16p15--------------------------20p17--18p17------|
-15-15-15-15-16p15-15------15----15-16p15-17-17-17-17-18p17-----17-----18p17-|
-----------------------------------------------------------------------------|

Repeat whole solo x2.

Chorus 3. Repeat Chorus 1 but with the wah.

Verse 3. Repeat verse 1. No wah.

End with power chord.
--------|
--------|
--------|
----4---|
----2---|
--------|