Mobb Deep - Got It Twisted Text Guitar Tab

Learn song with the online tabulature player
mobb deep
got it twisted (2004)

newest song by mobb deep. it sounds pretty cool on guitar

standard tuning

intro
E----------------------------------------------------------------|
B-4--5--7----2--7--4----4--5--7---2--7--4------------------------|
G----------------------------------------------------------------|
D----------------------------------------------------------------|
A----------------------------------------------------------------|
E----------------------------------------------------------------|


repeat this part throughout song
E----------------------------------------------------------------|
B----------------------------------------------------------------|
G----------------------------------------------------------------|
D----------------------------------------------------------------|
A-4-5--2-222-----------------------------------------------------|
E------------2---------------------------------------------------|

E----------------------------------------------------------------|
B----------------------------------------------------------------|
G----------------------------------------------------------------|
D----------------------------------------------------------------|
A-4-5--2-222-----------------------------------------------------|
E------------2---------------------------------------------------|

there u have it. tab by tim