Mobile - The Killer Text Guitar Tab

Learn song with the online tabulature player
Intro
E----------------------------------------------------------|
B----------------------------------------------------------|
G-----------9----------------------9----------11-9---------|
D------8-10-------8-10--------8-10-------8-10--------------|
A--8-8--------8-8------8--8-8--------8-8-------------------|
E----------------------------------------------------------|

E--------------------------------------------------------------------|
B--------------------------------------------------------------------|
G---------------------------------6-6-6-6-6-6-6-6--------------------|
D-8-8-8-8-8-8-8-8-8-8-8-8-8-8-8-8-6-6-6-6-6-6-6-6-6-6-6-6-6-6-6-6----|
A-8-8-8-8-8-8-8-8-8-8-8-8-8-8-8-8-4-4-4-4-4-4-4-4-6-6-6-6-6-6-6-6----|
E-6-6-6-6-6-6-6-6-6-6-6-6-6-6-6-6-----------------4-4-4-4-4-4-4-4----|