Mobius Band - The Loving Sounds Of Static Text Guitar Tab

Learn song with the online tabulature player
Mobius Band
http://www.mobiusband.com/home.php
Song: the loving sounds of static

Tabbed by: jedichewy
Tuning: standard

Intro- drums and keyboard play here, but you can play this really fast for the keyboard part.
            ----->>
e|--12-12-12----------------------------------------------------------------|
B|--12-12-12----------------------------------------------------------------|
G|--------------------------------------------------------------------------|
D|--------------------------------------------------------------------------|
A|--------------------------------------------------------------------------|
E|--------------------------------------------------------------------------|

enter guitar: main riff

    just repeat                    |listen to the song when he plays this
e|---------------------------------|---------------------------------------|
B|-----4---------------------------|----4----------------------------------|
G|---------------------------------|---------------------------------------|
D|---------6---6-------------------|--------6---6-------6------------------|
A|---7---7---7---4--7--4-----------|--7---7---7---4--7---------------------|
E|-------------------------0-------|----------------------0----------------|

the guitar part that goes dum! dum! dum! dum!

e|--4--4--4--4------------|
B|--4--4--4--4------------|
G|--4--4--4--4------------|
D|--6--6--6--6------------|
A|------------------------|
E|------------------------|

pre-Chorus
the drums and keyboard play solo again, but you can play this for the keyboard.
repeat 2 times until the chorus comes

e|-------------------------------------------------------------------------|
B|--5-5---5---5---4-4---4---4------9-9---9---9---10------------------------|
G|-------------------------------------------------------------------------|
D|-------------------------------------------------------------------------|
A|-------------------------------------------------------------------------|
E|-------------------------------------------------------------------------|

chorus-
    "you know you had.....         onced.... su..ggest...
     any........ thing.that hasn't passed    the  test...              by
e|-------------------------------------------------------------------------|
B|--5-5---5---5---4-4---4---4------0-0---0---0---2-2---2---2-2--1--1--1----|
G|--6-6---6---6---4-4---4---4------1-1---1---1---2-2---2---2-2--2--2--2----|
D|--6-6---6---6---4-4---4---4------2-2---2---2---2-2---2---2-2--2--2--2----|
A|-------------------------------------------------------------------------|
E|-------------------------------------------------------------------------|


    nine          teen             ninety        six....             yeah
e|--------------------------------------------------------------------------|
B|--5-5---5---5---4-4---4---4------0-0---0---0---2-2---2---2-2--2-2-2-------|
G|--6-6---6---6---4-4---4---4------1-1---1---1---2-2---2---2-2--2-2-2-------|
D|--6-6---6---6---4-4---4---4------2-2---2---2---2-2---2---2-2--2-2-2-------|
A|--------------------------------------------------------------------------|
E|--------------------------------------------------------------------------|


thats not part of this
e|-4--4----4---4----------|
B|-4--4----4---4------4---|
G|-4--4----4---4----------|
D|-6--6----6---6----------|  <=== main riff
A|------------------7---7-|
E|------------------------|

listen to the song to get it right.
also towards the end, the last time he says 1996
just play the part up there somewhere where its spelled out.

and end on

e|------------------------|
B|--2-------2-------2-----|
G|--2-------2-------2-----|
D|--2-------2-------2-----|
A|------------------------|
E|------------------------|


feedback? just say so