Moby - Chord Sounds Text Guitar Tab

Learn song with the online tabulature player
All parts are repeated throughout the song


Strings:

e|----------------2--------------2----------------------------|
B|--2-------------3--2-----------3--2-------------------------|
G|--2-------2-----2--2------2----2--2-------------------------|
D|--2-------4--------2------4-------2-------------------------|
A|----------4---------------4---------------------------------|
E|------------------------------------------------------------|



Piano:

e|----------------12--9-----------12----9----------------------|
B|----12----10------------12--10-------------------------------|
G|-------------------------------------------------------------|
D|-------------------------------------------------------------|
A|-------------------------------------------------------------|
E|-------------------------------------------------------------|



Bass:

e|------------------------------------------------------|
B|------------------------------------------------------|
G|------------------------------------------------------|
D|--4------7-----4-------7------------------------------|
A|-----5-------------5----------------------------------|
E|------------------------------------------------------|