Moby - In My Heart Text Guitar Tab

Learn the song with the online tablature player
Intro/Verse 12 times
|----------16-19-16----------------16-19-16-------------------16-19-16-------------------16-19-16-------|
|-------17----------17----------17----------17-------------17----------17-------------17----------17----|
|----16----------------16----16----------------16-------13----------------13-------13----------------13-|
|-14----------------------14----------------------14-13----------------------13-13----------------------|
|-------------------------------------------------------------------------------------------------------|
|-------------------------------------------------------------------------------------------------------|

Verse pt ii - 8 times
|----------16-19-16----------------16-19-16-------------------16-19-16-------------------16-19-16-------|
|-------17----------17----------17----------17-------------17----------17-------------17----------17----|
|----16----------------16----16----------------16-------13----------------13-------13----------------13-|
|-14----------------------14----------------------14-13----------------------13-13----------------------|
|-------------------------------------------------------------------------------------------------------|
|-------------------------------------------------------------------------------------------------------|
|
|
|-------------------------------------------------------------------------------------------------------|
|-------------------------------------------------------------------------------------------------------|
|-------------------------------------------------------------------------------------------------------|
|-------------------------------------------------------------------------------------------------------|
|-7---------------------------------------------------6-------------------------------------------------|
|-0-----------------------------------------------------------------------------------------------------|

Then the chorus just swaps between F# and E (pretty simple to figure out)

Then verse pt ii again excpet with octaves running over the chords (E and D#)
Then Chorus again
Then chorus one octave up
Then Intro again