Moby - Shot In The Back Of The Head Text Guitar Tab

Learn the song with the online tablature player
Moby - Shot in the back of the head
Album: Wait for me (2009)

    G  Am             G  C
e|--3--5-5-5-5-5-5----3--0-0-0-0-0-0-0-----------|
B|--3--5-5-5-5-5-5----3--1-1-1-1-1-1-1-----------|
G|--4--5-5-5-5-5-5----4--0-0-0-0-0-0-0-----------|
D|--5--7-7-7-7-7-7----5--2-2-2-2-2-2-2-----------|
A|--5--7-7-7-7-7-7----5--3-3-3-3-3-3-3-----------|
E|--3--5-5-5-5-5-5----3--0-0-0-0-0-0-0-----------|

    G  F              G  F
e|--3--1-1-1-1-1-1----0--1-1-1-1-1-1-1-----------|
B|--3--1-1-1-1-1-1----0--1-1-1-1-1-1-1-----------|
G|--4--2-2-2-2-2-2----0--2-2-2-2-2-2-2-----------|
D|--5--3-3-3-3-3-3----0--3-3-3-3-3-3-3-----------|
A|--5--3-3-3-3-3-3----0--3-3-3-3-3-3-3-----------|
E|--3--1-1-1-1-1-1----0--1-1-1-1-1-1-1-----------|

It goes on like this throughout the whole song

Alternative version:

    G  Am             G  C
e|--0--5-5-5-5-5-5----0--0-0-0-0-0-0-0-----------|
B|--0--5-5-5-5-5-5----0--1-1-1-1-1-1-1-----------|
G|--0--5-5-5-5-5-5----0--0-0-0-0-0-0-0-----------|
D|--0--7-7-7-7-7-7----0--2-2-2-2-2-2-2-----------|
A|--0--7-7-7-7-7-7----0--3-3-3-3-3-3-3-----------|
E|--0--5-5-5-5-5-5----0--0-0-0-0-0-0-0-----------|

    G  F              G  F
e|--0--1-1-1-1-1-1----0--1-1-1-1-1-1-1-----------|
B|--0--1-1-1-1-1-1----0--1-1-1-1-1-1-1-----------|
G|--0--2-2-2-2-2-2----0--2-2-2-2-2-2-2-----------|
D|--0--3-3-3-3-3-3----0--3-3-3-3-3-3-3-----------|
A|--0--3-3-3-3-3-3----0--3-3-3-3-3-3-3-----------|
E|--0--1-1-1-1-1-1----0--1-1-1-1-1-1-1-----------|