Moby - Spiders Text Guitar Tab

Learn the song with the online tablature player
Intro

e|---------------------------------------------------------------------------|
B|---7--10---12---7----7--10---12---7----------------------------------------|
G|---------------------------------------------------------------------------|
D|---------------------------------------------------------------------------|
A|---------------------------------------------------------------------------|
E|---------------------------------------------------------------------------|

Verse

Repeat
e|----------------------------------------------------------------------|
B|---------------3-3-5---5-5-7----8/------------------------------------|
G|---2-4--4-4-----------------------------------------------------------|
D|----------------------------------------------------------------------|
A|----------------------------------------------------------------------|
E|----------------------------------------------------------------------|

Pre Chorus:

e|-------------------------7---------------------7---------------------7-|
B|-----------7--7---10--7---------------7-7--10---------------7-7--10----|
G|-------7--------------------------7--------------------9---------------|
D|----7--------------------------7---------------------9-----------------|
A|-5--------------------------5----------------------7-------------------|
E|-----------------------------------------------------------------------|

Chorus

e|------------2---------0-------------------2--------------0-------------------|
B|--4---------2---------0----------4--------2--------------2-------------------|
G|--4---------3---------1----------4--------3--------------2-------------------|
D|--4---------4---------2----------4--------4--------------2-------------------|
A|--2(x10)----4---------2(x10)-----2(x10)---4--------------0-------------------|
E|------------2(x10)------------------------2(x5)------------------------------|