Moderatto - Popurock Navideo Text Guitar Tab

Learn song with the online tabulature player
INTRO    (todo el intro se toca con “tapping”)ews el intro de hot for the 
teacher         el tapping es en el traste 12 
|------|-------|--------------|--------------|--------------|
|------|-------|--------------|--------------|--------------|
|------|-------|--------------|--------------|--------------|
|------|-------|--------------|--------------|--------------|
|------|-0-3-7-|-12-7-3-0-3-7-|-12-7-3-0-3-7-|-12-7-3-0-3-7-|
|-15/0-|-------|--------------|--------------|--------------|

|--------------|--------------|--------------|--------------|
|--------------|--------------|--------------|--------------|
|--------------|--------------|--------------|--------------|
|--------------|--------------|--------------|--------------|
|-12-7-3-0-5-9-|-12-9-5-0-5-9-|-12-9-5-0-5-9-|-12-9-5-0-5-9-|
|--------------|--------------|--------------|--------------|

|---------------|--------------|--------------|--------------|
|---------------|--------------|--------------|--------------|
|---------------|--------------|--------------|--------------|
|------12-0-3-7-|-12-7-3-0-3-7-|-12-7-3-0-3-7-|-12-7-3-0-3-7-|
|-12-9----------|--------------|--------------|--------------|
|---------------|--------------|--------------|--------------|

|--------------|--------------|--------------|---------|
|--------------|--------------|--------------|---------|
|--------------|--------------|--------------|---------|
|-12-7-3-0-5-9-|-12-9-5-0-5-9-|-12-9-5-0-5-9-|-12--9~~~|
|--------------|--------------|--------------|---------|
|--------------|--------------|--------------|---------|

|-12-5-8-|-12-8-7-5-|------------|------------|-------------|
|--------|----------|-8-12-8-7-5-|------------|-------------|
|--------|----------|------------|-8-12-8-7-5-|-------------|
|--------|----------|------------|------------|-8-12-8-7-5--|
|--------|----------|------------|------------|-------------|
|--------|----------|------------|------------|-------------|

|---------------|
|---------------|
|---------------|
|---------------|
|-8-12-10-7-5-0-|
|---------------|

   Después del intro
|-10-10-10-10-10-12-10-------|---------------------|
|----------------------12----|-10-10-12-10---------|
|-------------------------12-|-------------12-9----|
|---- -----------------------|------------------12-|
|----------------------------|---------------------|
|----------------------------|---------------------|

|-----------------|
|-----------10-12-|
|---9-11-12-------|
|-12--------------|
|-----------------|
|-----------------|

|-10-10-12-10-------|---------------------|-----|
|-------------12----|-10-10-12-10---------|-10b-|
|----------------12-|-------------12-9-12-|-----|
|---- --------------|---------------------|-----|
|-------------------|---------------------|-----|
|-------------------|---------------------|-----|

|-10-10-10-10-10-12-10-------|---------------------|
|----------------------12----|-10-10-12-10---------|
|-------------------------12-|-------------12-9----|
|---- -----------------------|------------------12-|
|----------------------------|---------------------|
|----------------------------|---------------------|

|-----------------|
|-----------10-12-|
|---9-11-12-------|
|-12--------------|
|-----------------|
|-----------------|

|-10-10-12-10-------|---------------------|
|-------------12----|-10-10-12-10---------|
|----------------12-|-------------12-9-12-|
|---- --------------|---------------------|
|-------------------|---------------------|
|-------------------|---------------------|

|----------------------|-------|------------------|
|-----12-----12-----12-|-14-11-|-12-11h12p11------|
|-8-9----8-9----8-9----|-------|------------11-13-|
|----------------------|-------|------------------|
|----------------------|-------|------------------|
|----------------------|-------|------------------|

|-------------------|-------------------|
|-12-11h12p11-------|-12-11h12p11--14---|
|-------------11-13-|----------------11-|
|-------------------|-------------------|
|-------------------|-------------------|
|-------------------|-------------------|

|----------------------|------|-----------| |---10-----|
|-----10-----10-----10-|-12-9-|-10-9------| |-----10---|
|-6-7----6-7----6-7----|------|------9-11-| |-11----11-|x4
|----------------------|------|-----------| |----------|
|----------------------|------|-----------| |----------|
|----------------------|------|-----------| |----------|

|-10-10-10-10-10-12-10-------|---------------------|
|----------------------12----|-10-10-12-10---------|
|-------------------------12-|-------------12-9----|
|---- -----------------------|------------------12-|
|----------------------------|---------------------|
|----------------------------|---------------------|

|-----------------|
|-----------10-12-|
|---9-11-12-------|
|-12--------------|
|-----------------|
|-----------------|

|-10-10-12-10-------|---------------------|-----|
|-------------12----|-10-10-12-10---------|-10b-|
|----------------12-|-------------12-9-12-|-----|
|---- --------------|---------------------|-----|
|-------------------|---------------------|-----|
|-------------------|---------------------|-----|


|-10-10-10-10-10-12-10-------|---------------------|
|----------------------12----|-10-10-12-10---------|
|-------------------------12-|-------------12-9----|
|---- -----------------------|------------------12-|
|----------------------------|---------------------|
|----------------------------|---------------------|

|-----------------|
|-----------10-12-|
|---9-11-12-------|
|-12--------------|
|-----------------|
|-----------------|



|-10-10-12-10-------|---------------------|
|-------------12----|-10-10-12-10---------|
|----------------12-|-------------12-9-12-|
|---- --------------|---------------------|
|-------------------|---------------------|
|-------------------|---------------------|


|-10-12-10----15-12-10-|-10-12-10-12-10-15-14-|-8-10-8---14-12-10-|
|----------12----------|----------------------|--------10---------|
|----------------------|----------------------|-------------------|
|----------------------|----------------------|-------------------|
|----------------------|----------------------|-------------------|
|----------------------|----------------------|-------------------|

|-10-12-10-12-10-12----10----|
|-------------------10b---10-|
|----------------------------|
|----------------------------|
|----------------------------|
|----------------------------|





|-10-12-10----15-12-10-|-10-12-10-12-10-15-14-|-8-10-8---14-12-10-|
|----------12----------|----------------------|--------10---------|
|----------------------|----------------------|-------------------|
|----------------------|----------------------|-------------------|
|----------------------|----------------------|-------------------|
|----------------------|----------------------|-------------------|

|-10-12-10-12-10-17-15-|
|----------------------|
|----------------------|
|----------------------|
|----------------------|
|----------------------|

|---------8-|-7-8-9-8-7------|-7-8-10-10-8-7-----8-------------------|
|-8------8--|-----------10-8-|---------------10-8----8-10-8--------8-|
|---9-10----|----------------|---------------------9--------10-9-10--|
|-----------|----------------|---------------------------------------|
|-----------|----------------|---------------------------------------|
|-----------|----------------|---------------------------------------|

|---------8-|-7-8-9-8-7------|-7-8-10-10-8-7-----8-----------------|
|-8------8--|-----------10-8-|---------------10-8----8-10-8--------|
|---9-10----|----------------|---------------------9--------10-9-7-|
|-----------|----------------|-------------------------------------|
|-----------|----------------|-------------------------------------|
|-----------|----------------|-------------------------------------|

|---------------|-----------------|----------------|------------------|
|---------------|-----------------|----------------|------------------|
|---------------|-----------------|----------------|------------------|
|---------------|-----------------|----------------|------------------|
|-3-3-5-3-2-0-0-|-0-5-5-7-5-3-2---|--7-7-8-7-5-3-0-|---0~~-5~~-2~~-3~~|
|---------------|---------------3-|-3--------------|-3----------------|