Moderatto - Por Qu Se Nos Muri Text Guitar Tab

Learn the song with the online tablature player
Verso 1:
|----------------------------------------------|
|----------------------------------------------|
|-------6------9------11~~-------6------9~~~---|
|---6-6----7-7----9-9--------6-6----7-7--------|
|----------------------------------------------|
|----------------------------------------------|

Coro 1:
|-------------------|
|-----------3-------|
|-------2---2---2---| 2X
|---2---2---0---2---|
|---2---0-------0---|
|---0---------------|

|-----------------------------|
|-----------------------------|
|-----------------------2~~---|
|-----------------------2~~---|
|---4-4-4-4-4-4-4-4-4---0~~---|
|---2-2-2-2-2-2-2-2-2---------|
    * * * * * * * *

Verso 2:
|----------------------------------------------------------------------|
|-----12----------------------12-----------------12--------------------|
|---9----11~--9/11-11/9-9---9----11~-----------9----11~--9/11-11\9-9---|
|------------------------------------9~/11\9---------------------------|
|----------------------------------------------------------------------|
|----------------------------------------------------------------------|

|----------------------------------------------------------|
|----------------------------------------------------------|
|-------6------9------11~~-------6------9----11-11\13/11---|
|---6-6----7-7----9-9--------6-6----7-7----9---------------|
|----------------------------------------------------------|
|----------------------------------------------------------|

Coro 2:
|-------------------|
|-----------3-------|
|-------2---2---2---| 4X
|---2---2---0---2---|
|---2---0-------0---|
|---0---------------|

|-----------------------------------|
|-----------------------------------|
|-----------------------2~~---------|
|-----------------------2~~---2~~---|
|---4-4-4-4-4-4-4-4-4---0~~---2~~---|
|---2-2-2-2-2-2-2-2-2---------0~~---|
    * * * * * * * *

Solo

|----------------9---------------------------------------|
|--------------9---12----9-12---9------------------------|
|-----9-11-11b--------11-----11---11b-11b13r9----11-9~~--|
|--11-----------------------------------------11---------|
|--------------------------------------------------------|
|--------------------------------------------------------|

Puente: F# A F# B
|---------------------------|
|---------------------------|
|--99-88----99-88----99-88--|
|--------99-------99--------|
|---------------------------|
|---------------------------|
   ** ** ** ** ** ** ** **
|---------------------------|
|---------------------------|
|--99-88----99-88----11~~~--|
|--------99-------99--------|
|---------------------------|
|---------------------------|
   ** ** ** ** ** **
|---------------------------|
|---------------------------|
|--99-88----99-88----99-88--|
|--------99-------99--------|
|---------------------------|
|---------------------------|
   ** ** ** ** ** ** ** **
|-----------|
|-----------|
|--12-------|
|-----11-9--|
|-----------|
|-----------|
   *  *  *

Coro 3:
|-------------------|
|-----------3-------|
|-------2---2---2---| 4X
|---2---2---0---2---|
|---2---0-------0---|
|---0---------------|

|-----------------------------|
|-----------------------------|
|-----------------------2~~---|
|-----------------------2~~---|
|---4-4-4-4-4-4-4-4-4---0~~---|
|---2-2-2-2-2-2-2-2-2---------|
    * * * * * * * *