Modest Mouse - 5-4-3-2-1 Lipsoff Text Guitar Tab

Learn the song with the online tablature player
E |---------------------------|
B |---------------------------|
G |---------------------------|
D |--0---0---0---0---0---0---0|
A |3---3---3---3---2---2---2--|
E |---------------------------|

E |---------------------------|
B |---------------------------|
G |---------------------------|
D |--0---0---0---0---0---0---0|
A |3---3---3---3---2---2---2--|
E |---------------------------|

E |---------------------------|
B |---------------------------|
G |---------------------------|
D |--0---0---0---0---0---0---0|
A |3---3---3---3---2---2---2--|
E |---------------------------|

E |---------------------------|
B |---------------------------|
G |---------------------------|
D |--0---0---0---0---0---0---0|
A |3---3---3---3---2---2---2--|
E |---------------------------|

E |---------------------------|
B |---------------------------|
G |---------------------------|
D |--0---0---0---0---0---0---0|
A |3---3---3---3---2---2---2--|
E |---------------------------|

E |---------------------------|
B |---------------------------|
G |---------------------------|
D |--0---0---0---0---0---0---0|
A |3---3---3---3---2---2---2--|
E |---------------------------|