Modest Mouse - Beta Carotene Text Guitar Tab

Learn song with the online tabulature player
this song is often confused with "Dyed Your Hair". you can find the lyrics to this song 
www.songmeanings.net


this is a live song. it is not on any of their albums.

INTRO

this is played on bass guitar. i translated it to regular guitar. this is played 
the whole song.

e----------------------------------------------|
B----------------------------------------------|
G----------------------------------------------|
D--------------5-5-5--7-7-7-7-7-7-7--5-5-5-----|
A--3-3---5-5-----------------------------------|
E----------------------------------------------|



Here are the fills Isaac plays


e-----------------------------------------------------------------|
B-----------------------------------------------------------------|
G-----------14------14----14-----------------7---7-----9---9------|
D--------------------------------------------x---x-----x---x------|
A--------12----12-----12---------------------5---5-----7---7------|
E-----------------------------------------------------------------|
       |_____________________| < bend the heck out of these

after that part Isaac plays

e -------------------------------------|
B -------------------------------------|
G ----14-------7-----9-----------------|
D ----14-------7-----9-----------------|
A ----12-------5-----7-----------------|
E -------------------------------------|


here are the 3 power chords he plays. im not posting the strumming pattern. if you 
to the song you can figure it out.


and lastly here is the little solo he plays


E-----------------------------------|
B-----------------------------------|
G------6-5--------------------------|
D----------6--8-6-------------------|
A-----------------8/6/8-------------|
E-----------------------------------|

THATS IT!!

also if anyone can tab the bass for this song please do
jeez i sound like a robot.....