Modest Mouse - Birds Vs Worms Text Guitar Tab

Learn the song with the online tablature player
Birds vs. Worms by: Modest Mouse

-----------------------------------------------------------------------------|
-----------------------------------------------------------------------------|
-----11-------11-------------14----------------------------------------------|
-12-----12-12------12-14-14-----14/12--12-12---------------------------------|
----------------------------------------------[14]-14-14-14-12--14--14-14-14-|
-----------------------------------------------------------------------------|

------------------------------------------------------|
------------------------------------------------------|
----------------11-------11--------------14/12--------|
----------11-12----12-12----12--14-14----------12--12-|
-14-12-14---------------------------------------------|
------------------------------------------------------|

Then Go back to the [] and continue playing.  Just keep repeating it. Listen to the song
figure out the exact rithems.

By: Steven B.