Modest Mouse - Closing Time Text Guitar Tab

Learn the song with the online tablature player
                          Closing Time - Modest Mouse

______________________________________________________________________________

                                                                           x5
e|-3-xx-3-3-3-3-x-3-xx-3-xx-3-3-3-3-x-3-xx-----------------------------------|
B|-3-xx-3-3-3-3-x-3-xx-3-xx-3-3-3-3-x-3-xx-1-xx-1-1-1-1-x-1-xx-1-xx-1-1------|
G|-3-xx-3-3-3-3-x-3-xx-3-xx-3-3-3-3-x-3-xx-0-xx-0-0-0-0-x-0-xx-0-xx-0-0-1~---|
D|-----------------------------------------2-xx-2-2-2-2-x-2-xx-2-xx-2-2------|
A|-----------------------------------------3-xx-3-3-3-3-x-3-xx-3-xx-3-3------|
E|---------------------------------------------------------------------------|

e|----------------------------------------|
B|----------------------------------------|
G|-------------------------0-0-0-2-2-2-4--|
D|-2-2-2-2-2-2-2-2-0-0-0-0----------------|
A|----------------------------------------|
E|----------------------------------------|
   I'm...          off...

                                                                x4
e|-3-xx-3-3-3-3-x-3-xx-3-xx-3-3-3-3-x-3-xx-----------------------------------|
B|-3-xx-3-3-3-3-x-3-xx-3-xx-3-3-3-3-x-3-xx-1-xx-1-1-1-1-x-1-xx-1-xx-1-1------|
G|-3-xx-3-3-3-3-x-3-xx-3-xx-3-3-3-3-x-3-xx-0-xx-0-0-0-0-x-0-xx-0-xx-0-0-1~---|
D|-----------------------------------------2-xx-2-2-2-2-x-2-xx-2-xx-2-2------|
A|-----------------------------------------3-xx-3-3-3-3-x-3-xx-3-xx-3-3------|
E|---------------------------------------------------------------------------|

e|-----------------------|
B|-----------------------|
G|---0----------0---4p2--|
D|-2---2-0-2-2----2------|
A|-----------------------|
E|-----------------------|

    |  Palm Muted  |                   x9
e|---------------------------------------|
B|---------------------------------------|
G|---0----------0---4p2------------------|
D|-2---2-0-2-2----2----------------------|
A|---------------------------------------|
E|---------------------------------------|
  I've got a girlfriend out of the city...

e|---------------------------------------------------------------------------|
B|---------------------------------------------------------------------------|
G|---0-0-2-4-----------------0-2-4-------------------------------------------|
D|-0-----------2-2-2-2-0-0-0-------------------------------------------------|
A|---------------------------------------------------------------------------|
E|---------------------------------------------------------------------------|

 Guitar 1
e|---------------------------------------------------------------------------|
B|---------------------------------------------------------------------------|
G|-0-2-4-2-4-2-0-2-----------------------------------------------------------|
D|---------------------------------------------------------------------------|
A|---------------------------------------------------------------------------|
E|---------------------------------------------------------------------------|

Guitar 2
e|---------------------------------------------------------------------------|
B|---------------------------------------------------------------------------|
G|---------------------------------------------------------------------------|
D|-2-2-2-2-2-2-2-2-2-2-2-2-2-2-2-2-0-0-0-0-0-0-0-0-0-0-0-0-0-0-0-0-----------|
A|---------------------------------------------------------------------------|
E|---------------------------------------------------------------------------|

                                                                           x4
e|---------------------------------------------------------------------------|
B|---------------------------------------------------------------------------|
G|-2-2-2-2/7-2-2-2-2/7--0-0-0-0/7-0-0-0-0/7----------------------------------|
D|-2-2-2-2/7-2-2-2-2/7--0-0-0-0/7-0-0-0-0/7----------------------------------|
A|---------------------------------------------------------------------------|
E|---------------------------------------------------------------------------|

The last few minutes of the song is just a bunch of notes, they're pretty easy to figure
if you want to.