Modest Mouse - Interstate 8 Text Guitar Tab

Learn the song with the online tablature player
NOTE: There are a bunch of overdubs of reversed guitars in this song, so this obviously
everything, but it's what isn't reversed.

FADE IN
e]----------------------------------|
B]----------------------------------|
G]-12~~~~~~-------------------------|
D]----------------------------------|
A]----------------------------------|
E]----------------------------------|

MAIN WHAMMY PART
Add in random variations as per usual Isaac Brock fashion.

  Whammy Down 0.75
e]----------------------------------|
B]12\-/----12\-/--------------------|
G]11\-/----11\-/--------------------|
D]12\-/----12\-/--------------------|
A]----------------------------------|
E]-------------------10101010-9-10-x|
        -Palm Mute-  . . . .  . .  .

VERSE
Add in random variation

Main
e]----------------------------------|
B]--12----12----12----12------------|
G]----11----11----11----11-11-12-11-|
D]0-----0-----0-----0---------------|
A]----------------------------------|
E]----------------------------------|

Variation 2
e]----------------------------------|
B]--12----12----12b-----------------|
G]----11----11----------------------|
D]0-----0-----0---------------------|
A]----------------------------------|
E]----------------------------------|

CHORUS

  Whammy Down 0.75
e]----------------------------------|
B]12\-/-----------12\-/-------------|
G]11\-/-----------11\-/-------------|
D]12\-/-----------12\-/-------------|
A]----------------------------------|
E]----------------------------------|

End chorus (2nd Time)

e]----------------------------------|
B]12--12--12--12--12--12--12--12----|
G]11--11--11--11--11--11--11--11----|
D]12--12--12--12--12--12--12--12----|
A]----------------------------------|
E]----------------------------------|

OUTTRO

(Distortion)
e]----------------------------------|
B]7---8---10--12--12-12--12--12-----|
G]----------------------------------|
D]4---5---7---9---9--9---9---9------|
A]----------------------------------|
E]----------------------------------|

e]----------------------------------|
B]----------------------------------|
G]6---7---9---11--11-11--11--11-----|
D]----------------------------------|
A]4---5---7---9---9--9---9---9------|
E]----------------------------------|

e]----------------------------------|
B]7---8---10--12--------------------|
G]----------------------------------|
D]4---5---7---9---------------------|
A]----------------------------------|
E]----------------------------------|

e]----------------------------------|
B]----------------------------------|
G]6---7---9---11--------------------|
D]----------------------------------|
A]4---5---7---9---------------------|
E]----------------------------------|

Enjoy.