Modest Mouse - Ive Got It All Most Text Guitar Tab

Learn the song with the online tablature player
Intro

E|--------------------------------------------|
B|--------------------------------------------|
G|-------8-88----6---6666666------------------|
D|-------4-44----2---2222222------------------|
A|-------6-66----4---4444444------------------|
E|--------------------------------------------|

Verse

(10x)
E|--------------------------------------------|
B|--------------------------------------------|
G|-------8-88----6---6666666------------------|
D|-------4-44----2---2222222------------------|
A|-------6-66----4---4444444------------------|
E|--------------------------------------------|
(Listen for strumming...)

E|--------------------------------------------|
B|-----7--------------------------------------|
G|--------8-----------------------------------|
D|-----------9--------------------------------|
A|--------------------------------------------|
E|--------------------------------------------|

1st Chorus:

(4x)
E|--------------------------------------------|
B|-------------------------7------------------|
G|-------8-8----13-9---------8----------------|
D|-------8-8----13-9-----------9--------------|
A|-------6-6----11-7--------------------------|
E|--------------------------------------------|

Verse

(5x)
E|--------------------------------------------|
B|--------------------------------------------|
G|-------8-88----6---6666666------------------|
D|-------4-44----2---2222222------------------|
A|-------6-66----4---4444444------------------|
E|--------------------------------------------|

2nd Chorus:

(2x)
E|--------------------------------------------|
B|-------------------------7------------------|
G|-------8-8----13-9---------8----------------|
D|-------8-8----13-9-----------9--------------|
A|-------6-6----11-7--------------------------|
E|--------------------------------------------|

E|--------------------------------------------|
B|--------------------------------------------|
G|-------8-8----13-9--------------------------|
D|-------8-8----13-9--------------------------|
A|-------6-6----11-7--------------------------|
E|--------------------------------------------|

E|--------------------------------------------|
B|--------------------------------------------|
G|-------8-8----13-4--------------------------|
D|-------8-8----13-4--------------------------|
A|-------6-6----11-2--------------------------|
E|--------------------------------------------|

E|--------------------------------------------|
B|--------------------------------------------|
G|-------8-8----13-9--------------------------|
D|-------8-8----13-9--------------------------|
A|-------6-6----11-7--------------------------|
E|--------------------------------------------|

E|--------------------------------------------|
B|--------------------------------------------|
G|-------8-8----13-4--------------------------|
D|-------8-8----13-4--------------------------|
A|-------6-6----11-2--------------------------|
E|--------------------------------------------|

(6x)
E|----------------------------------------------------------7--7--7---|
B|-----------7-------------------7-------------------7----------------|
G|---------8---8-----8---------8---8-----8---------8---8--------------|
D|-------9---------9---------9---------9---------9--------9-----------|
A|--------------------------------------------------------------------|
E|--------------------------------------------------------------------|

(3x)
E|------------------------|
B|------------------------|
G|-------8---6------------|
D|-------4---2------------|
A|-------6---4------------|
E|------------------------|