Modest Mouse - Satin In A Coffin Text Guitar Tab

Learn song with the online tabulature player
Tabbed by: SublimeRox
Email: scott_mys@hotmail.com

My first tab and some of the credit goes to previous tabs on this site for the intro. 
than it sounds, but very creative.

Tuning: Standard

Intro
e|----------------------3-------------------------3----|
B|----------3----------------------------3-------------|
G|------3h5---5p3h5p3-----3----------3h5---5 3-----3---|
D|--3h5--------------5-----------3h5-----------5-------|
A|-----------------------------------------------------|
E|-----------------------------------------------------|
OR
e|-----------------------3-----------------------3-----------------|
B|----------3----------------------------3-------------------------|
G|-0h3--3h5---5p3--5p3-0----0---0h3--3h5---5-3------0--------------|
D|---------------------------------------------5-------------------|
A|-----------------------------------------------------------------|
E|-----------------------------------------------------------------|

Verse:
e--------------|
B--------------|
G--------------|
D-5--5--5--5-3-|
A-5--5--5--5-3-|  Repeat
E-3--3--3--3-1-|

Chorus:
e|-------------------------------------3-6-3---------------------------------|
B|------------3-6-3--------------------------6-3---3-6-----------------------|
G|-----3---5--------3---5----then----------------5---------------------------|
D|---5---5------------5------repeat:-----------------------------------------|
A|---------------------------------------------------------------------------|
E|---------------------------------------------------------------------------|

Pretty cool shizit!

| /  slide up
| \  slide down
| h  hammer-on
| p  pull-off
| ~  vibrato
| +  harmonic
| x  Mute note
===============================================================================