Modest Mouse - This Devils Workday Text Guitar Tab

Learn the song with the online tablature player
Banjo arranged for guitar

(Whole song)
e|-------------------------------------------------------------------------|
B|--------------------11---------------------------------------------11----|
G|----10--12-10-12-12---------10--12-10-12-12-10------10--12-10-12-12------|
D|-12----------------------12----------------------12----------------------|
A|-------------------------------------------------------------------------|
E|-------------------------------------------------------------------------|

e|------------------------|
B|------------------------|
G|-------12-10------------|
D|-10-12-------13-12-10---|
A|------------------------|
E|------------------------|