Modest Mouse - Tiny Cities Made Of Ashes Text Guitar Tab

Learn song with the online tabulature player
----------------------------------------------------------------------------
           TINY CITIES MADE OF ASHES **(SOLO)** - by Modest Mouse
----------------------------------------------------------------------------
Tabbed by: Drew S. (eyes shut wide)
Email:  pooisdrew@hotmail.com

Tuning:  standard (EADGBe)

e|---11---9---11---9---7---9---7---9------------9--------9/11---9---7---9--|
B|-------------------------------------9---12-------12---------------------|
G|-------------------------------------------------------------------------|
D|-------------------------------------------------------------------------|
A|-------------------------------------------------------------------------|
E|-------------------------------------------------------------------------|

e|---11---9---11---9---7---9---7---9---------------------------------------|
B|-------------------------------------9-------7-------9-------12----------|
G|-------------------------------------------------------------------------|
D|-------------------------------------------------------------------------|
A|-------------------------------------------------------------------------|
E|-------------------------------------------------------------------------|

e|---11---9---11---9---7---9---7---9------------9--------9/11---9---7---9--|
B|-------------------------------------9---12-------12---------------------|
G|-------------------------------------------------------------------------|
D|-------------------------------------------------------------------------|
A|-------------------------------------------------------------------------|
E|-------------------------------------------------------------------------|

e|---11---9---11---9---7---9---7---9---------------------------------------|
B|-------------------------------------9-------7-------/11-------9------9--|
G|-------------------------------------------------------------------------|
D|-------------------------------------------------------------------------|
A|-------------------------------------------------------------------------|
E|-------------------------------------------------------------------------|


| /  slide up
| \  slide down
| h  hammer-on
| p  pull-off
| ~  vibrato
| +  harmonic
| x  Mute note

  -enjoy!
============================================================================