Modest Mouse - Tundra Desert Text Guitar Tab

Learn song with the online tabulature player
Tundra/Desert - Modest Mouse 


Tabbed by: chrtes

Email: capslock44105@yahoo.com

Tuning: EADgbe


| /  slide up
| \  slide down
| h  hammer-on
| p  pull-off
| ~  vibrato
| +  harmonic
| x  Mute note



e|-------------------|
B|-------------------|
G|--7/11---7/12------|
D|--0/0----0/0-------|
A|--5/9----5/10------|
E|-------------------|



e|-----------------------|
B|-----------------------|
G|-----------------------|
D|-----------------------|
A|-----------------------|
E|---7-7-7-7-8-8-8-8-----|



e|----19----19---------------------|
B|-------16----16--20b--20b--20b---|
G|---------------------------------|
D|---------------------------------|
A|---------------------------------|
E|---------------------------------|



e|---19----19----------------------|
B|------16----16--20---------------|
G|-------------------19--14--------|
D|--------------------------14-----|
A|---------------------------------|
E|---------------------------------|



e|---------------------------------------------------------|
B|---------------------------------------------------------|
G|---------------------------------------------------------|
D|-12-12-12-12-12-12-12-13-13-15-15-15-15-15-15-15-13-12---|
A|---------------------------------------------------------|
E|---------------------------------------------------------|



e|-------------------------------------------------------------|
B|-------------------------------------------------------------|
G|-------------------------------------------------------------|
D|--19-17-16-16-16-16-16-16-16-16-17-17-19-19-19-19-19-19-19---|
A|-------------------------------------------------------------|
E|-------------------------------------------------------------|




e|--------------------------------------------------|
B|--------------------------------------------------|
G|--------------------------------------------------|
D|-16-16-16-16-16-16-16-17-19-17-16-14-16-14-16-17--|
A|--------------------------------------------------|
E|--------------------------------------------------|




e|--------------------------------------------------|
B|--------------------------------------------------|
G|--------------------------------------------------|
D|---16-16-16-16-16-16-16-17-19-17-16-17-16---------|
A|--------------------------------------------------|
E|--------------------------------------------------|



e|----19----19---------------------|4x
B|-------16----16--20b--20b--20b---|
G|---------------------------------|
D|---------------------------------|
A|---------------------------------|
E|---------------------------------|




e|---19----19----------------------|
B|------16----16--20---------------|
G|-------------------19--14--------|
D|--------------------------14-----|
A|---------------------------------|
E|---------------------------------|



e|----19----19---------------------|
B|-------16----16--20b--20b--20b---|
G|---------------------------------|
D|---------------------------------|
A|---------------------------------|
E|---------------------------------|




e|---19----19----------------------|
B|------16----16--20---------------|
G|-------------------19--14--------|
D|--------------------------14-----|
A|---------------------------------|
E|---------------------------------|



e|-------------------------------------------------|
B|---18---------------22---18-18-18-------18--13---|
G|-------18b-18b-18b-------------------------------|
D|----------------------19----------19-19----------|
A|-------------------------------------------------|
E|-------------------------------------------------|



e|----19----19---------------------|2x
B|-------16----16--20b--20b--20b---|
G|---------------------------------|
D|---------------------------------|
A|---------------------------------|
E|---------------------------------|



e|-----------------------------|
B|--17----17----17-------------|
G|-----13----13----13-13-------|
D|-----------------------13----|
A|-----------------------------|
E|-----------------------------|



e|--------------------------------|
B|--17----17----17--14b-14b-14b---|
G|-----13----13-------------------|
D|--------------------------------|
A|--------------------------------|
E|--------------------------------|



e|----19----19---------------------|
B|-------16----16--20b--20b--20b---|
G|---------------------------------|
D|---------------------------------|
A|---------------------------------|
E|---------------------------------|


e|---------------------------------------------------------|
B|---------------------------------------------------------|
G|---------------------------------------------------------|
D|-12-12-12-12-12-12-12-13-13-15-15-15-15-15-15-15-13-12---|
A|---------------------------------------------------------|
E|---------------------------------------------------------|



e|---------------------------------------------------------|
B|---------------------------------------------------------|
G|---------------------------------------------------------|
D|-12-12-12-12-12-12-12-13-13-15-15-15-15-15-15-15-13-12---|
A|---------------------------------------------------------|
E|---------------------------------------------------------|



e|--------------------------------------------------|
B|--------------------------------------------------|
G|--------------------------------------------------|
D|--16-16-16-16-16-16-17-19-17-16-17-17-14-16-------|
A|--------------------------------------------------|
E|--------------------------------------------------|




e|------------------------------------------|
B|------------------------------------------|
G|------------------------------------------|
D|-12-12-12-12-12-12-12-13-13-15-15-15/19---|
A|------------------------------------------|
E|------------------------------------------|



e|-------------------------------------------------|
B|-------------------------------------------------|
G|-------------------------------------------------|
D|-12-12-12-12-12-12-12-13-13-15-15-15-15-15-15----|
A|-------------------------------------------------|
E|-------------------------------------------------|



e|---------------------------|
B|---------------------------|
G|---11---12---11--12--------|
D|---0----0----0---0---------|
A|---9----10---9---10--------|
E|---------------------------|



e|--------------------|3x
B|--7---8---10--------|
G|--6---7---9---------|
D|--4---5---7---------|
A|--------------------|
E|--------------------|



e|----19----19---------------------|6x
B|-------16----16--20b--20b--20b---|
G|---------------------------------|
D|---------------------------------|
A|---------------------------------|
E|---------------------------------|



e|------------------------------------------------------|
B|------------------------------------------------------|
G|--11b--12b--11b--12b--11b--12b--14b--11b--12b--14b----|
D|------------------------------------------------------|
A|------------------------------------------------------|
E|------------------------------------------------------|