Modest Mouse - Your Life Text Guitar Tab

Learn song with the online tabulature player
-------------------------------------------------------------------------------
                            YOUR LIFE - Modest Mouse
-------------------------------------------------------------------------------

Intro:

e|-------------------------------------------------------------------------|
B|-------------------------------------------------------------------------|
G|--------------------2----------------------------------------------------|
D|-------2-0------0-4---4--------------------------------------------------|
A|---0-4-----4--2----------------------------------------------------------|
E|-2-----------------------------------------------------------------------|

e|-------------------------------------------------------------------------|
B|-------------------------------------------------------------------------|
G|-------------------------------------------------------------------------|
D|-------2-0---------------------------------------------------------------|
A|---0-4-----4--2-4-4/7-4-2-0----------------------------------------------|
E|-2-----------------------------------------------------------------------|


OR, for the second line you could play:

e|-------------------------------------------------------------------------|
B|-------------------------------------------------------------------------|
G|-------------------------------------------------------------------------|
D|-------2-0----------2----------------------------------------------------|
A|---0-4-----4--2-4-----4-2-0----------------------------------------------|
E|-2-----------------------------------------------------------------------|


************************************

| /   slide up
| \   slide down
| h   hammer-on
| p   pull-off
| ~   vibrato
| +   harmonic
| x   Mute note
| b   Bend
| pb  Pre-bend
| br  Bend release
| pbr Pre-bend release
| brb Bend release bend

************************************