Modest Mussorgsky - Pictures At An Exhibition 1 Promenade I Gnomus Text Guitar Tab

Learn the song with the online tablature player
PICTURES AT AN EXHIBITION - 1. PROMENADE I & GNOMUS
Modest Petrovich Mussorgsky

|----------------------------------------|------------0----|
|----------------------------------------|----------0---2--|
|----------------------------------------|-------2--1---1--|
|-4--2--7--9-14-11--9-14-11--7--9--4--2--|-4--2--4--2---2--|
|----------------------------------------|-4--2--4------4--|
|----------------------------------------|-4--6--4--2------|

|---0----------------|-----------------|--------0-------------|
|-0---2--------------|-----------------|-----------2----------|
|-1---2--2--4--------|-----------------|--------------4-2-----|
|-2---2--4--1--4--2--|-2--4-----2-4----|-4-6-2--2--2--2---2---|
|-----0--4--2--2--2--|-------4------2--|-----------0----------|
|-2------4-----1--2--|-----------------|--------2-----4---2---|

|-----------------|--------3------------|-------------------------|
|-----------------|-----------5--3------|--------------0--3-------|
|-----------------|-2-4-0----------5-0--|-0--2---0---2-------2-0--|
|-2--4-----2-4-0--|--------5--5--5---5--|-0----------0---------3--|
|-------4---------|-----------3--0------|-------------------------|
|-----------------|--------5---------5--|-3------2---3----3-------|

|-----0-3-1-0-----0------|----------------------|--------------0--2---------|
|-1-3-1---3-1-3-6-1-1-3--|--------------0--3----|-0--2---0---2-------2--0---|
|-0-4-0---2-0-4---2---4--|-0--2---0---2-------2-|---------------------------|
|-2-0-----0-2-5-------5--|-0----------0---------|-4----------4--------------|
|-----3------------------|----------------------|-0----------0----0-----0---|
|------------------------|-3------2---3----3----|--------6------------------|

|-0-2-4-7-5-4-2-5-4---2--|-4------4-----4-----|-0------0-----0------|
|-0-4-5---7-5-4---5-5-4--|---4-5--0--2--0--2--|---0-2-----2----0-2--|
|---4-4---6-4-4---6---4--|-4---6--1--2--1--2--|-1---2--1--2--1---2--|
|-6----------------------|-6---------1-----1--|-----4-----4------4--|
|-------------2---4---2--|-----7--------------|-4------4-----4------|
|-6-4-2---4-6------------|-6---7--2--4--2--4--|---------------------|

|--------------------------|----------0----------|-------0--2-5-0--2--|
|-0-----------0----------2-|-------------3-2-0---|-0--2--0--3---------|
|-------1--2--------1--2---|-4--1--4-----2-----2-|----------2---------|
|-0-----2--2--0-----2--2---|-4--2--4--2--0---2-2-|-2--2--2------2--4--|
|-9--6--2--4--9--6--2--4---|-6--4--6-------4-2-4-|-2--0---------------|
|-9-----2--4--9-----2--4---|-9--2--9--2--4---6-7-|-6-----6--4---2--4--|

|-0----------------0--|-2-5-0--2--0--------|-2-5-0--2--0--------|
|----3-2-0---0--2--0--|-3------------------|-4------------------|
|----2-----2----------|-2------------------|-2------------------|
|-2--0---2-2-2--2--2--|-----2--4--2--4--2--|-4---2--4--2--4--2--|
|------4-2-4-2--0-----|--------------------|-2------------0--2--|
|-2--4---6-7-6-----6--|-4---2--4--2--------|-----2--4--2--0--2--|

|------0------0-------|----------2--0--5--|-7-12----9--5--10--7--5--|--------||
|----0---2------2-----|-0--------2--0--5--|-0------10--7--12--9--5--|--------||
|-2--1---2--4---2--2--|----------------2--|---------9--6--11--9--6--|--------||
|-2--2---2--6---2--2--|-0--4--2--4--6-----|-6----------4---------7--|--------||
|-4--2---0--7------4--|-2--2--2--0--------|---------0---------7--0--|--------||
|-----------6---4--4--|----1--2-----6--4--|-2--------------9--------|--------||

|-------------|---------|------|-------------|---------|--------|
|-------------|---------|------|-------------|---------|--------|
|-3-----3-2---|---------|------|-3-----3-2---|---------|--------|
|---0---------|-3-------|------|---0---------|-3-------|--------|
|-1---4---0-4-|---------|------|-1---4---0h4-|---------|--------|
|-----0-------|-3-------|------|-----0-------|-3-------|--------|

|-------------|-----------|------------||-5--17*-----|
|-------------|-----------|------------||------*-----|
|-3-----3-2---|-----------|------------||-2--14*-----|
|---0---------|-1--7---0--|-7----------||------*-----|
|-1---4---0h4-|-----------|-----4p=0---||------*-----|
|-----0-------|-1--7h8-0--|-7----------||------*-----|

|----5--17*--|---------|-12--10----|-8---7---------|
|---------*--|---------|-10--10----|-6---6---------|
|-2--2--14*--|---------|-10--10----|-7---7---------|
|---------*--|---------|-----------|---------------|
|-0-------*--|---------|-----------|---------------|
|---------*--|---------|--0---0----|-6-------------|

|-3---1--------|-0-------|----|--------------|---------------|
|-3---3--------|----3----|----|--------------|---------------|
|-3---3--------|-2--2----|----|-5---4--------|-0-------------|
|-3---3--------|-3--3----|----|-0---0--------|-0---0---------|
|--------------|---------|----|-8---8--------|-8---8---------|
|--------------|-0--0----|----|-6------------|-8---8---------|

|--------------|---------|-12--10----|-8---7-----|
|--------------|---------|-10--10----|-6---6-----|
|--------------|---------|-10--10----|-7---7-----|
|----8p7-------|---------|-----------|-----------|
|--------------|---------|-----------|-----------|
|---------8p7*-|---------|--0---0----|-6---------|

|-3---1-----|-0-------|-----|-----------|----------|
|-3---3-----|----3----|-----|-----------|----------|
|-3---3-----|-2--2----|-----|-5---4-----|-0--------|
|-3---------|-3--3----|-----|-0---0-----|-0---0----|
|-----------|---------|-----|-8---8-----|-8---8----|
|-----------|-0--0----|-----|-6---------|-8---8----|

|--------------|-------------|-----------|----------|
|--------------|-------------|-----------|----------|
|--------------|-3-----3-2---|-----------|----------|
|----8p7-------|---0---------|-3---------|----------|
|--------------|-1---4---0h4-|------1p0--|----------|
|---------8p7--|-----0-------|-3---------|----------|

|-------------|-----------|----------|--------------|---------|-----------||
|-------------|-----------|----------|--------------|---------|-----------||
|-3-----3-2---|-----------|----------|--------------|---------|-----------||
|---0---------|-1--7---0--|-7--------|----8p7-------|---------|-----------||
|-1---4---0h4-|-----------|---4p=0---|--------------|---------|-----------||
|-----0-------|-1--7h8-0--|-7--------|---------8p7--|-8-------|-7---------||

|-----------|-----------|------------|-----------|
|-----------|-----------|------3--2--|-4----3----|
|-----------|-----------|------------|-----------|
|-0----6----|-0----7----|-0----------|-----------|
|-----------|-----------|------2--1--|-3----2----|
|-0----6----|-0----7----|-0----------|-----------|

|-------------|------------|-------------|-------------|----------|
|----3--2--6--|-5-----5----|-6--5-----5--|-------------|----------|
|-------------|----2-------|-------2-----|-3-----3-2---|----------|
|-0-----------|------------|-------------|---0---------|-3*-------|
|----2--1--5--|-4-----4----|-5--4-----4--|-1---4---0h4-|----------|
|-0-----------|----3-------|-------3-----|-----0-------|-3*-------|

|-----------|-----------|------------|-----------|
|-----------|-----------|------5--4--|-8----7----|
|-----------|-----------|------------|-----------|
|-0----6----|-0----7----|-0----------|-----------|
|-----------|-----------|------3--2--|-6----5----|
|-0----6----|-0----7----|-0----------|-----------|

|-------------|------------|-------------|-------------|----------|
|----5--4--8--|-7-----7----|-8--7-----7--|-4-----4-----|----------|
|-------------|----5-------|-------5-----|---0-----7---|----------|
|-0-----------|------------|-------------|-----4---0h4-|-8*-------|
|----3--2--6--|-5-----5----|-6--5-----5--|-6-----6--h4-|----------|
|-0-----------|----6-------|-------6-----|---5-4----h4-|-8*-------|

|-----------|-----------|-6-----6-5---|-----------|
|-----------|-----------|---3-------2-|-6*--------|
|------6----|------7----|-3---6---2---|-----------|
|-5---------|-5---------|-----0-------|-----------|
|------4----|------5----|----------h4-|-8*--------|
|-5---------|-5---------|-------------|-----------|

|---10----9--13--|-12------12----|-10----9-----|
|----------------|-----10--------|----------8--|
|-7--7----6--10--|--8-------8----|--7----6--0--|
|-0--0----0------|-11------10----|--9----8-----|
|----------------|-----12--------|-------------|
|----0-----------|-11------10----|--9----8-----|

|-8-----7----|-6----5-----|-4----3-------|
|----6-------|---------3--|---------2----|
|-5-----4----|-3----2-----|-1----0-------|
|-7-----6----|-5----4-----|-3----2-------|
|----8-------|---------5--|---------4----|
|-7-----6----|-5----4-----|-3----2-------|

|---10----9-----|-8-----7----|-6----5-----|
|---------------|------------|------------|
|---------------|------------|------------|
|----0-------8--|-7--0--6----|-5----4-----|
|---------6-----|------------|---------3--|
|-0-------------|------------|------------|

|-4-----3----|-2-----1----|-0-----------|
|------------|------------|-------4*----|
|------------|------------|-------------|
|----3--2----|-1-----0----|-------------|
|-2----------|----1-------|-4--0--3*----|
|------------|------------|-------------|

|--------------|-----------------|
|--------------|-----------------|
|--------------|-----------------|
|--------------|-----------------|
|--------------|-----------------|
|-0-h0tr1---1/-|-6--h6tr7----6s1-|

|-12-10*------------|
|-10-10*------------|
|-10-10*------------|
|-------------------|
|-------------------|
|--0----h0tr1----1/-|

|-8-7*-------------------|
|-6-6*-----------8-6*----|
|-7-7*-----------7-7*----|
|----------------8-8*----|
|------------------------|
|-6---h6tr7------x---6s1-|

|---------------|
|---------------|
|-9-7*----------|
|-7-7*----------|
|-8-8*----------|
|-0---h0tr1-1/--|

|--------------------|
|---0*---------------|
|-5----------0-------|
|-0-0*-------0-0*----|
|-8-8*---------8*----|
|-6--h6tr7=======6s1-|

|------------------|
|------------------|
|-9-7*-------------|
|-7-7*-------------|
|-8-8*-------------|
|-0--h0tr1------1/-|

|-------------|------|
|-------0-----|------|
|-5-----------|------|
|-0-----0-----|------|
|-8-----8-----|------|
|-6-----6tr7--|-6/---|

|-8-7-----|-------|-10-11*-----|-----------|
|-6-6-----|-------|-12-12*-----|-----------|
|-7-7-----|-------|------------|--0-----0--|
|-6-6tr7--|-------|-12-12*-----|-12----13--|
|---------|-------|-10-10*-----|-13----13--|
|---------|-------|------------|-----------|

|----------|-------------|-------------|
|----------|-------------|-----2-3-5-6-|
|-------3--|-2-----1-2-3-|-1-2---------|
|----------|---2-3-------|-------------|
|----------|-0-0-0-0-0-0-|-0-0-0-0-0-0-|
|----------|-------------|-------------|

|-------0--------------9-10-|-^13---------*|
|-5-2-3-----9-1011-910------|-^10---------*|
|--------10-----------------|-^10---------*|
|---------------------------|-^-0---------*|
|-0-0-0-0-0-0--0-0-0-0-0--0-|-^-0---------*|
|---------------------------|-^-0---------*|