Moe - The Road Text Guitar Tab

Learn the song with the online tablature player
                             The Road - Moe.

VERSE
e|-----------------(5)-------------------(0)------------------------------------------|
B|-----------------(5)-------------------(0)------------------------------------------|
G|---9-----7--------------------------------------------------------------------------|
D|---9-----7----7----------7-----5-----2----------------------------------------------|
A|---7-----5----7----------7-----5-----2----------------------------------------------|
E|--------------5----------5-----3-----0----------------------------------------------|

e|--------------------------------------------------------------------------------------|
B|------------------------------(10)----------------------------------------------------|
G|-------------7------------------------------------------------------------------------|
D|----7------7---7-------7--------------------------------------------------------------|
A|--7---7s5--------5---7---7s5----------------------------------------------------------|
E|--------------------------------------------------------------------------------------|

2:16
e|---------------------------------------------------------|
B|-----------17------------------17--14--------------------|
G|--13-14-16------------13-14-16--------14-----------------|
D|-----------------------------------------14s12-----------|
A|--------------16-----------------------------------------|
E|---------------------------------------------------------|

During the marimba break play
e|--------------------------------------------------------|
B|--------------------------------------------------------|
G|--------------------------------------------------------|
D|---7--7--7----5--5--5-----------------------------------|
A|---7--7--7----5--5--5-----------------------------------|
E|---5--5--5----3--3--3-----------------------------------| x4
     - on the 4th time through hold the G chord

e|--------------------------------------------------------|
B|-----------17------------------17--14-------------------|
G|--13-14-16------------13-14-16--------14----------------|
D|-----------------------------------------14s12----------|
A|--------------16----------------------------------------|
E|--------------------------------------------------------|

e|--12-14-12----12----------------------12-14-12----12----------------------|
B|-----------14----14-------12-------------------14----14-------12----------|
G|--------------------13-14-------------------------------13-14-------------|
D|-----------------------------14-------------------------------------------|
A|--------------------------------------------------------------------------|
E|--------------------------------------------------------------------------|

e|-------------------------------------------------------------14-15-17-----|
B|--------------------------------------------------14-15-17----------------|
G|-----------------------------------------13-14-16-------------------------|
D|-----------------------------------14-16----------------------------------|
A|--------------------------------------------------------------------------|
E|--------------------------------------------------------------------------|