Mogwai - Angels Vs Aliens Text Guitar Tab

Learn the song with the online tablature player
'Angels Vs. Aliens'
Ten Rapid album
Mogwai

     use some delay...
e|---------3p2------------------------5-/-7----||
B|---0--------------0---3--//--0---------------||
G|-0--------------0----0---//------------------||
D|---------------------------------------------||
A|---------------------------------------------||
E|---------------------------------------------||

||-----------------0-----0---------7p0------||
||---0-----------------0-----------------0--||
||-0-------0-0------0-----------------0-----||
||------------------------------------------||
||------------------------------------------||
||------------------------------------------||

Gtr1 clean sound
||-----------------------------------------------------||
||------------------------------------0----------------||
||-------0--------0--0--0------------0-----0--0--0-----||
||-----2--------4--4--4------------0-----4--4--4-------||
||-----------------------------------------------------||
||---0-----------------------------3-------------------||

Gtr2 delay
||--------0------3---------------||
||------0------0----0------------||
||----0------------------0-------||
||-------------------------------||
||-------------------------------||
||-------------------------------||

Gtr1 clean sound
||-----------------------------------------------------||
||------------------------------------0----------------||
||-------0--------0--0--0------------0-----0--0--0-----||
||-----2--------4--4--4------------0-----4--4--4-------||
||-----------------------------------------------------||
||---0-----------------------------3-------------------||

Gtr2 delay
||--------0------3-------------||
||------0------0----0----------||
||----0------------------0-----||
||-----------------------------||
||-----------------------------||
||-----------------------------||

Backwards vocals here

Gtr1 clean sound
||-----------------------------------------------------||
||------------------------------------0----------------||
||-------0--------0--0--0------------0-----0--0--0-----||
||-----2--------4--4--4------------0-----4--4--4-------||
||-----------------------------------------------------||
||---0-----------------------------3-------------------||

Gtr2 delay
||--------0------3------------------||
||------0------0----0---------------||
||----0------------------0----------||
||----------------------------------||
||----------------------------------||
||----------------------------------||

Gtr1 clean sound
||-----------------------------------------------------||
||------------------------------------0----------------||
||-------0--------0--0--0------------0-----0--0--0-----||
||-----2--------4--4--4------------0-----4--4--4-------||
||-----------------------------------------------------||
||---0-----------------------------3-------------------||
Gtr2 delay
||--------0------3-------------||
||------0------0----0----------||
||----0------------------0-----||
||-----------------------------||
||-----------------------------||
||-----------------------------||

Normal vocals here

Gtr1 clean sound
||-----------------------------------------------------||
||------------------------------------0----------------||
||-------0--------0--0--0------------0-----0--0--0-----||
||-----2--------4--4--4------------0-----4--4--4-------||
||-----------------------------------------------------||
||---0-----------------------------3-------------------||

Gtr2 delay
||--------0------3-----------------||
||------0------0----0--------------||
||----0------------------0---------||
||---------------------------------||
||---------------------------------||
||---------------------------------||

Gtr1 clean sound
||-----------------------------------------------------||
||------------------------------------0----------------||
||-------0--------0--0--0------------0-----0--0--0-----||
||-----2--------4--4--4------------0-----4--4--4-------||
||-----------------------------------------------------||
||---0-----------------------------3-------------------||

Gtr2 delay
||--------0------3-------------------||
||------0------0----0----------------||
||----0------------------0-----------||
||-----------------------------------||
||-----------------------------------||
||-----------------------------------||

Change
Vocals stop

Gtr 1 chords - clean sound
||--------------------------------------------||
||--------------------------------------------||
||---0------0-----0----0------0--0---0---0----||
||---4------2-----5----2------4--2---5---2----||
||---3------3-----3----3------2--2---2---2----||
||---0------0-----0----0------0--0---0---0----||

repeat until...

Gtr 1&2 together with slight delay
||---------------------------------------||
||---------------------------------------||
||---------------------------------------||
||---------------------------------------||
||----3-3-3-3-3--3-3-3-3-3---3-3-3-3-3---||
||---------------------------------------||

Bells enter

Guitar 1 w/ distortion
||--------------||
||--------------||
||--------------||
||---5----------||
||---3----------||
||--------------||
Gtr2 messes with effects ending in feedback...

I know this isn't the best Mogwai song to tab, since it seems like most of it was
improvised and experimentation, but I'll just add anything I can since this site
doesn't have nearly enough tabs for great bands like Mogwai. enjoy.