Mogwai - How To Be A Werewolf Text Guitar Tab

Learn the song with the online tablature player
Author: Nasher

Intro

h = hammer-on
p = pull-off
/ = slide

e|-5---h7~---------5---h7~--------|
B|-5~--------------5~-------------|
G|--------------------------------|
D|--------------------------------|
A|--------------------------------|
E|--------------------------------|

e|-5---p2~---------5---p2~--------|
B|-5~--------------5~-------------|
G|--------------------------------|
D|--------------------------------|
A|--------------------------------|
E|--------------------------------|

Main riff

Play this for a few minutes on clean, then add some distortion towards the end.

11=eleven

e|---------------------------------------------------------------|
B|---------------------------------------------------------------|
G|---------------------------------------------------------------|
D|-7--77--777----7--77--/999---11-1111--111111--11-1111--/999----|
A|-0--00--000----0--00--/000---0--0-0---0-0-0---0--0-0---/000----|
E|---------------------------------------------------------------|

e|-----------------------------------------------------------|
B|-----------------------------------------------------------|
G|-----------------------------------------------------------|
D|-7--77--777----7--77--/444---7--77--777----7--77--777------|
A|-0--00--000----0--00--/000---0--00--000----0--00--000------|
E|-----------------------------------------------------------|

Solo

(just play around with the Amajor scale)